» » »

Local Natives - Ceilings Tabs

Artists:  A B C D E F G H I J K L M N O P Q R S T U V W X Y Z # 

Ceilings Tabs

(ver. 1) Click to play this song!
Local Natives
 Rating:
4.3/5 (22 votes)

 Ceilings lessons Tabs too difficult? Try these video lessons and learn fast
 
                [Intro]

e|----------------------------------------------------|
B|-----------0-----------------------0----------------|
G|-----0------------0----------0-------------0--------|
D|--------2------------2h4--------4-------------4p2---|  
A|----------------------------------------------------|
E|--3-----------(3)----------3-----------(3)----------|(x6)


[Verse]

e|----------------------------------------------------|
B|-----------0-----------------------0----------------|
G|-----0------------0----------0-------------0--------|
D|--------2------------2h4--------4-------------4p2---|
A|----------------------------------------------------|
E|--3-----------(3)----------3-----------(3)----------|(x4)

e|----------------------------------------------------|
B|------------0------------------------0--------------|
G|------0-----------0------------0-----------0--------|
D|---------7-----------7h9----------9-----------9p7---| 
A|----------------------------------------------------|
E|--(8)-----------8----------(8)-----------8----------|(x2)

e|----------------------------------------------------|
B|-----------0-----------------------0----------------|
G|-----0------------0----------0-------------0--------|
D|--------2------------2h4--------4-------------4p2---|  
A|----------------------------------------------------|
E|--3-----------(3)----------3-----------(3)----------|(x4)

e|----------------------------------------------------|
B|------------0------------------------0--------------|
G|------0-----------0------------0-----------0--------|
D|---------7-----------7h9----------9-----------9p7---| 
A|----------------------------------------------------|
E|--(8)-----------8----------(8)-----------8----------|(x2)


[Chorus]

e|----------------------|----------------------||
B|-----------1----------|----------1-----------||
G|-----0-----------0----|----4-----------4-----||
D|--------2-----------2-|-------2-----------2--||
A|--3-----------3-------|-3-----------3--------||
E|----------------------|----------------------||
                                                |(x2)
e|----------------------|----------------------||
B|-----------1----------|----------1-----------||
G|-----2-----------2----|----2-----------2-----||
D|--------2-----------2-|-------4-----------4--||
A|--0-----------0-------|-0-----------0--------||
E|----------------------|----------------------||


[Verse 2]

e|----------------------------------------------------|
B|-----------0-----------------------0----------------|
G|-----0------------0----------0-------------0--------|
D|--------2------------2h4--------4-------------4p2---|  
A|----------------------------------------------------|
E|--3-----------(3)----------3-----------(3)----------|(x8)

e|----------------------------------------------------|
B|------------0------------------------0--------------|
G|------0-----------0------------0-----------0--------|
D|---------7-----------7h9----------9-----------9p7---| 
A|----------------------------------------------------|
E|--(8)-----------8----------(8)-----------8----------|(x2)

e|----------------------------------------------------|
B|-----------0-----------------------0----------------|
G|-----0------------0----------0-------------0--------|
D|--------2------------2h4--------4-------------4p2---|  
A|----------------------------------------------------|
E|--3-----------(3)----------3-----------(3)----------|(x4)

e|----------------------------------------------------|
B|------------0------------------------0--------------|
G|------0-----------0------------0-----------0--------|
D|---------7-----------7h9----------9-----------9p7---| 
A|----------------------------------------------------|
E|--(8)-----------8----------(8)-----------8----------|(x2)


[Chorus]

e|----------------------|----------------------||
B|-----------1----------|----------1-----------||
G|-----0-----------0----|----4-----------4-----||
D|--------2-----------2-|-------2-----------2--||
A|--3-----------3-------|-3-----------3--------||
E|----------------------|----------------------||
                                                |(x2)
e|----------------------|----------------------||
B|-----------1----------|----------1-----------||
G|-----2-----------2----|----2-----------2-----||
D|--------2-----------2-|-------4-----------4--||
A|--0-----------0-------|-0-----------0--------||
E|----------------------|----------------------||

e|----------------------------------------------------|
B|-----------0-----------------------0----------------|
G|-----0------------0----------0-------------0--------|
D|--------2------------2h4--------4-------------4p2---|  
A|----------------------------------------------------|
E|--3-----------(3)----------3-----------(3)----------|(x2)

e|----------------------|----------------------||
B|-----------1----------|----------1-----------||
G|-----0-----------0----|----4-----------4-----||
D|--------2-----------2-|-------2-----------2--||
A|--3-----------3-------|-3-----------3--------||
E|----------------------|----------------------||
                                                |(x2)
e|----------------------|----------------------||
B|-----------1----------|----------1-----------||
G|-----2-----------2----|----2-----------2-----||
D|--------2-----------2-|-------4-----------4--||
A|--0-----------0-------|-0-----------0--------||
E|----------------------|----------------------||


[Outro]

e|----------------------------------------------------|
B|-----------0-----------------------0----------------|
G|-----0------------0----------0-------------0--------|
D|--------2------------2h4--------4-------------4p2---|(x4)
A|----------------------------------------------------|
E|--3-----------(3)----------3-----------(3)----------|            
Submit corrections


        Ceilings lessons Hard to play? Try these video lessons and learn fast Ceilings lessons
        
↑ Back to top | Tablatures and chords for acoustic guitar and electric guitar, ukulele, drums are parodies/interpretations of the original songs. You may use it for private study, scholarship, research or language learning purposes only