Home » L » Local Natives »

Local Natives - Breakers Tabs

Artists:  A B C D E F G H I J K L M N O P Q R S T U V W X Y Z # 

Breakers Tabs

(ver. 1) Click to play this song!
Local Natives
[Intro]

e|---14---12-12-12-12-12---14---14-14-14---14---12-12-12-12-12---16---16-16-16---|
B|---14---14-14-14-14-14---14---14-14-14---14---14-14-14-14-14---14---14-14-14---|
G|---13---13-13-13-13-13---13---13-13-13---13---13-13-13-13-13---13---13-13-13---|
D|-------------------------------------------------------------------------------| x3
A|-------------------------------------------------------------------------------|
E|-------------------------------------------------------------------------------|

e|---14---12-12h14---12---12-12-12---14---12-12-12-12-12---16---16-16-16---|
B|---14---14-14-14---14---14-14-14---14---14-14-14-14-14---14---14-14-14---|
G|---13---13-13 13---13---13-13-13---14---14-14-14-14-14---14---14-14-14---|
D|-------------------------------------------------------------------------|
A|-------------------------------------------------------------------------|
E|-------------------------------------------------------------------------|


            
Submit corrections

↑ Back to top | Tablatures and chords for acoustic guitar and electric guitar, ukulele, drums are parodies/interpretations of the original songs. You may use it for private study, scholarship, research or language learning purposes only