Home » L » Little Richard »

Little Richard - Jenny Jenny Tabs

Artists:  A B C D E F G H I J K L M N O P Q R S T U V W X Y Z # 

Jenny Jenny Tabs
Version #1
Little Richard


Copy URL
 Intro
  Q=178
  C                 Bb                F
 4/4
  Gtr I (Piano arr. for Gtr.)
  E E E E E E E E   E E E E E E E E   E E E E E E E E   E E E E E E E E
|-----------------|-----------------|-----------------|-----------------||
|-5-5-5-5-5-5-5-5-|-3-3-3-3-3-3-3-3-|-1-1-3-3-1-1-3-3-|-1-1-3-3-1-1-3-3-||
|-5-5-5-5-5-5-5-5-|-3-3-3-3-3-3-3-3-|-2-2-2-2-2-2-2-2-|-2-2-2-2-2-2-2-2-||
|-5-5-5-5-5-5-5-5-|-3-3-3-3-3-3-3-3-|-3-3-3-3-3-3-3-3-|-3-3-3-3-3-3-3-3-||
|-3---------------|-1---------------|-3---------------|-3---------------||
|-----------------|-----------------|-----------------|-----------------||


   1st - 6th Verses
    $
    F
    E E E E E E E E   E E E E E E E E   E E E E E E E E   E E E E E E E E
||------------------|-----------------|-----------------|------------------|
||o-1-1-1-1-1-1-1-1-|-1-1-1-1-1-1-1-1-|-1-1-1-1-1-1-1-1-|-1-1-1-1-1-1-1-1--|
||--2-2-2-2-2-2-2-2-|-2-2-2-2-2-2-2-2-|-2-2-2-2-2-2-2-2-|-2-2-2-2-2-2-2-2--|
||--3-3-3-3-3-3-3-3-|-3-3-3-3-3-3-3-3-|-3-3-3-3-3-3-3-3-|-3-3-3-3-3-3-3-3--|
||o-----------------|-----------------|-3---------------|-3----------------|
||------------------|-----------------|-----------------|------------------|


  Bb                                  F
  E E E E E E E E   E E E E E E E E   E E E E E E E E   E E E E E E E E
|-----------------|-----------------|-----------------|-----------------|
|-3-3-3-3-3-3-3-3-|-3-3-3-3-3-3-3-3-|-1-1-1-1-1-1-1-1-|-1-1-1-1-1-1-1-1-|
|-3-3-3-3-3-3-3-3-|-3-3-3-3-3-3-3-3-|-2-2-2-2-2-2-2-2-|-2-2-2-2-2-2-2-2-|
|-3-3-3-3-3-3-3-3-|-3-3-3-3-3-3-3-3-|-3-3-3-3-3-3-3-3-|-3-3-3-3-3-3-3-3-|
|-----------------|-----------------|-3---------------|-3---------------|
|-----------------|-----------------|-----------------|-----------------|


                                  1.,2.
           To Coda
  C                  Bb            F
  E E E E E E E E    E E Q  H      E E E E E E E E   E E E E E E E E  3x
|------------------|-------------|-----------------|------------------||
|-5-5-5-5-5-5-5-5--|-3-----------|-1-1-1-1-1-1-1-1-|-1-1-1-1-1-1-1-1-o||
|-5-5-5-5-5-5-5-5--|-3-----------|-2-2-2-2-2-2-2-2-|-2-2-2-2-2-2-2-2--||
|-5-5-5-5-5-5-5-5--|-3-----------|-3-3-3-3-3-3-3-3-|-3-3-3-3-3-3-3-3--||
|------------------|-------------|-----------------|-----------------o||
|------------------|-------------|-----------------|------------------||


                                      Saxophone Solo
  3.
  F                                    F
  E E E E E E E E   E E E E E E E E    E E E E E E E E   E E E E E E E E
|-----------------|-----------------||-----------------|-----------------|
|-1-1-1-1-1-1-1-1-|-1-1-1-1-1-1-1-1-||-1-1-1-1-1-1-1-1-|-1-1-1-1-1-1-1-1-|
|-2-2-2-2-2-2-2-2-|-2-2-2-2-2-2-2-2-||-2-2-2-2-2-2-2-2-|-2-2-2-2-2-2-2-2-|
|-3-3-3-3-3-3-3-3-|-3-3-3-3-3-3-3-3-||-3-3-3-3-3-3-3-3-|-3-3-3-3-3-3-3-3-|
|-----------------|-----------------||-3---------------|-3---------------|
|-----------------|-----------------||-----------------|-----------------|
|
| Gtr II (Sax. arr. for Gtr.)
| W                 W                  Q   Q   Q   Q     E E Q   Q   E E
|-----------------|-----------------||-----------------|-----------------|
|-----------------|-----------------||-----------------|-----------------|
|-----------------|-----------------||-----------------|-----------------|
|-----------------|-----------------||-----------------|-----------------|
|-----------------|-----------------||-0---------------|-----------------|
|-----------------|-----------------||-----3---1-------|-1-3-----1---3-4-|


                                        Bb
  E E E E E E E E    E  E E E E E E E   E E E E E E E E   E E E E E E E E
|-----------------|-------------------|-----------------|-----------------|
|-1-1-1-1-1-1-1-1-|--1--1-1-1-1-1-1-1-|-3-3-3-3-3-3-3-3-|-3-3-3-3-3-3-3-3-|
|-2-2-2-2-2-2-2-2-|--2--2-2-2-2-2-2-2-|-3-3-3-3-3-3-3-3-|-3-3-3-3-3-3-3-3-|
|-3-3-3-3-3-3-3-3-|--3--3-3-3-3-3-3-3-|-3-3-3-3-3-3-3-3-|-3-3-3-3-3-3-3-3-|
|-3---------------|--3----------------|-----------------|-----------------|
|-----------------|-------------------|-----------------|-----------------|
|
| E E Q   E E E E   +Q    Q   H         E E E E Q   Q     Q   E E E E E E
|-----------------|-------------------|-----------------|-----------------|
|-----------------|-------------------|-----------------|-----------------|
|-----------------|-------------------|-----------------|-----------------|
|-----0---3-3---3-|-(3)---------------|-6-5-6-5-3-------|-----6-6-6-6-6-6-|
|-0-3-------------|-------------------|-------------5---|-----------------|
|-----------------|-------------------|-----------------|-----------------|


  F                                   C
  E E E E E E E E   E E E E E E E E   E E E E E E E E
|-----------------|-----------------|-----------------|
|-1-1-1-1-1-1-1-1-|-1-1-1-1-1-1-1-1-|-5-5-5-5-5-5-5-5-|
|-2-2-2-2-2-2-2-2-|-2-2-2-2-2-2-2-2-|-5-5-5-5-5-5-5-5-|
|-3-3-3-3-3-3-3-3-|-3-3-3-3-3-3-3-3-|-5-5-5-5-5-5-5-5-|
|-3---------------|-3---------------|-----------------|
|-----------------|-----------------|-----------------|
|
| E E Q   Q   Q     E E E E E E Q     E E E E E E E E
|-----------------|-----------------|-----------------|
|-----------------|-----------------|-----------------|
|-----------------|-----------------|-----------------|
|-6-5-3---3-------|-3---------------|---------3-3-3-3-|
|-------------5---|---5-3-----3-----|-----0-3---------|
|-----------------|-------4-5-------|---1-------------|


                                              D.S. al Coda
                      F                 C
   E  E E E E E E E   E E E E E E E E   E E E E  E  E E E
|-------------------|-----------------|--------------------||
|--3--3-3-3-3-3-3-3-|-1-1-1-1-1-1-1-1-|-5-5-5-5--5--5-5-5--||
|--3--3-3-3-3-3-3-3-|-2-2-2-2-2-2-2-2-|-5-5-5-5--5--5-5-5--||
|--3--3-3-3-3-3-3-3-|-3-3-3-3-3-3-3-3-|-5-5-5-5--5--5-5-5--||
|-------------------|-3---------------|--------------------||
|-------------------|-----------------|--------------------||
|
| +E  E Q   E E Q     Q   E E E E Q     E Q   E +Q    E E
|-------------------|-----------------|--------------------||
|-------------------|-----------------|--------------------||
|-------------------|-----------------|--------------------||
|-(3)---------------|-----------------|--------------------||
|-----5-3-----------|-----------3-5---|-6-5---3-(3)---5----||
|-----------4-5-1---|-1-----4-5-------|--------------------||


  &
  Bb            F                     F#F
  E E Q  H      E E E E E E E E   E E E E +H       +W
|-------------|-----------------|----------------|--------*|
|-3-----------|-1-1-1-1-1-1-1-1-|-1---2-1-(1)----|-(1)----*|
|-3-----------|-2-2-2-2-2-2-2-2-|-2---3-2-(2)----|-(2)----*|
|-3-----------|-3-3-3-3-3-3-3-3-|-3---4-3-(3)----|-(3)----*|
|-------------|-----------------|----------------|--------*|
|-------------|-----------------|----------------|--------*|            
Submit corrections

↑ Back to top | Tablatures and chords for acoustic guitar and electric guitar, ukulele, drums are parodies/interpretations of the original songs. You may use it for private study, scholarship, research or language learning purposes only