» » »

Little Big Town - Bring It On Home Tabs

Artists:  A B C D E F G H I J K L M N O P Q R S T U V W X Y Z # 

Bring It On Home Tabs

(ver. 2) Click to play this song!
Little Big Town
 Rating:
2.8/5 (30 votes)

 Bring It On Home lessons Tabs too difficult? Try these video lessons and learn fast
 
                INTRO -   (I)    G   D*  CAD    

E-----------------------0-0---0-----3--3----3-3-3~~~---|
B---------0h1p0---1/3---3-3-x-3-x---3--3-x--3-3-3~~~---|
G----0----0-------0-----0-0-x-0-x---0--0-x--0-0-0~~~---|
D----0----0h2p0---2/4---4-4-x-4-x---2--2-x--2-2-2-0h2--|
A----2------------0-----5-5-x-5-x---3--3-x--3-3-3-3----|
E----3-------------------------------------------------|

          (II)   G   D*  Cadd9  D**  

E-----------------------0-0---0-----3--3----3-3-3-0----|
B---------0h1p0---1/3---3-3-x-3-x---3--3-x--3-3-3-0h3--|
G----0----0-------0-----0-0-x-0-x---0--0-x--0-0-0-0----|
D----0----0h2p0---2/4---4-4-x-4-x---2--2-x--2-2-2-0h4--|
A----2------------0-----5-5-x-5-x---3--3-x--3-3-3-5----|
E----3-------------------------------------------------|


VERSE ONE

        Cadd9
You got someone here who wants to make it alright,
E--------3~~~--------------------------------3-3-|
B--------3~~~--------------------------------3-3-|
G--------0~~~--------------------------------0-0-|
D--------2~~~------------------------------------|
A--------3~~~------------------------------------|
E------------------------------------------------|

Cadd9                                   G   D*  Cadd9  D**     
Someone that loves you more than life right here.
E-3-3--------------------------------------|
B-3-3--------------------------------------|
G-0-0------------------------------------0-|
D---2---------------------------------0h2--|
A---3--------------------------------------|
E------------------------------------------| * repeat intro (II) here *

        Cadd9
You got willin' arms that will hold you tight,
E--------3~~~----------------------------3-3-|
B--------3~~~----------------------------3-3-|
G--------0~~~----------------------------0-0-|
D--------2~~~--------------------------------|
A--------3~~~--------------------------------|
E--------------------------------------------|

Cadd9                                         G   D*   Cadd9 
A hand to lead you all through the night right here.
E-3-3-------------------------------------------------------------0-0---0-----3--3----3-3-3-|
B-3-3-----------------------------------------------0h1p0---1/3---3-3-x-3-x---3--3-x--3-3-3-|
G-0-0--------------------------------------0---0----0-------0-----0-0-x-0-x---0--0-x--0-0-0-|
D---2-----------------------------------0h2----0----0h2p0---2/4---4-4-x-4-x---2--2-x--2-2-2-|
A---3------------------------------------------2------------0-----5-5-x-5-x---3--3-x--3-3-3-|
E----------------------------------------------3--------------------------------------------|


CHORUS ONE

[D                             Cadd9
I know your heart can get all tangled up inside,
D                      Am7~ 
Don't you keep it to yourself.

          G     D**   Cadd9  
When your long day is over,
E-----------------------0-0---0-----3--3----0h3-3-3---|
B---------0h1p0---1/3---3-3-x-3-x---3--3-x--3---3-3---|
G----0----0-------0-----0-0-x-0-x---0--0-x--0---0-0---|
D----0----0h2p0---2/4---4-4-x-4-x---2--2-x--2---2-2---|
A----2------------0-----5-5-x-5-x---3--3-x--3---3-3---|
E----3------------------------------------------------|

            G       D**       Cadd9
And you can barely drag your feet.
E-----------------------0-0---x-----3--3----3---3-3---|
B---------0h1p0---1/3---3-3-x-x-x---3--3-x--3---3-3---|
G----0----0-------0-----0-0-x-x-x---0--0-x--0---0-0---|
D----0----0h2p0---2/4---4-4-x-x-x---2--2-x--2h0-0-0---|
A----2------------0-----5-5-x-x-x---3--3-x--3---3-3---|
E----3------------------------------------------------|

                  Em7              C                               
The weight of the world is on your shoulders,
                Am7                                
I know what you need, 
        E----------------------3-|
        B------------------1-----|
        G----------0-----2---2---|
        D------0h2-----2---------|
        A----0-------0-----------|
        E------------------------|

                      G D* Cadd9 G D* Cadd9 D**  
Bring it on home to me. * repeat intro (I) + (II) here *


VERSE TWO

      Cadd9     
Whoa I know, I know you like the back of my hand,
E--------3~~~--------------------------------3-3-|
B--------3~~~--------------------------------3-3-|
G--------0~~~--------------------------------0-0-|
D--------2~~~------------------------------------|
A--------3~~~------------------------------------|
E------------------------------------------------|

Cadd9                                             G  D*  Cadd9  D** 
But you know I'm goin' to do all that I can right here. 
E-3-3--------------------------------------|
B-3-3--------------------------------------|
G-0-0------------------------------------0-|
D---2---------------------------------0h2--|
A---3--------------------------------------|
E------------------------------------------| * repeat intro (II) here *

            Cadd9                           
I'm goin' to lie with you 'till you fall asleep,
E------------3~~~-----------------------------------|
B------------3~~~-----------------------------------|
G------------0~~~-----------------------------------|
D------------2~~~---------------------------------0-|
A------------3~~~------------------------------2h0--|
E---------------------------------------------------|

         Cadd9                                     G   D*  Cadd9  D**               
When the mornin' comes I'm still goin' to be right here,  yes I am.
E---------3--------------------------------------|
B---------3--------------------------------------|
G---------0------------------------------------0-|
D---------2---------------------------------0h2--|
A---------3--------------------------------------|
E------------------------------------------------| * repeat intro (II) here *


CHORUS TWO

D                             C
So take your worries and just drop them at the door,
D                 Am7~
Baby leave it all behind.

          G     D**   Cadd9     
When your long day is over,
E-----------------------0-0---0-----3--3----0h3-3-3---|
B---------0h1p0---1/3---3-3-x-3-x---3--3-x--3---3-3---|
G------0--0-------0-----0-0-x-0-x---0--0-x--0---0-0---|
D------0--0h2p0---2/4---4-4-x-4-x---2--2-x--2---2-2---|
A------2----------0-----5-5-x-5-x---3--3-x--3---3-3---|
E------3----------------------------------------------|

            G      D**       Cadd9
And you can barely drag your feet.
E-----------------------0-0---x-----3--3----3---3-3---|
B---------0h1p0---1/3---3-3-x-x-x---3--3-x--3---3-3---|
G----0----0-------0-----0-0-x-x-x---0--0-x--0---0-0---|
D----0----0h2p0---2/4---4-4-x-x-x---2--2-x--2h0-0-0---|
A----2------------0-----5-5-x-x-x---3--3-x--3---3-3---|
E----3------------------------------------------------|

                  Em7              C
The weight of the world is on your shoulders,
                Am7                               
I know what you need,
        E----------------------3-|
        B------------------1-----|
        G----------0-----2---2---|
        D------0h2-----2---------|
        A----0-------0-----------|
        E------------------------|
                             G           D*            Cadd9   
Bring it on home to me. 
                E-----------------------5---5-5-5-x--3--0----0-0-0~~~----|
                B---------0h1p0---1/3---3-x-3-3-3-x--3--3-x--3-3-3~~~----|
                G----0----0-------0-----0-x-0-0-0-x--0--0-x--0-0-0~~~----| * NOTE: this is not exactly the
                D----0----0h2p0---2/4---4-x-4-4-4-x--2--2-x--2-2-2-0h2h0-|  same as 'Intro (I)'. There 
                A----2------------0-----5-x-5-5-5-x--3--3-x--3-3-3-3-----|  should be highlights on the 
                E----3---------------------------------------------------|  high e string '5' and '0'.

             G           D*             Cadd9   
E-----------------------5---5-5-5-----3--3----3-3-3-3-|
B---------0h1p0---1/3---3-x-3-3-3-x---3--3-x--3-3-3-3-|
G----0----0-------0-----0-x-0-0-0-x---0--0-x--0-0-0-0-| * NOTE: this is not exactly the same as Intro(I) 
D----0----0h2p0---2/4---4-x-4-4-4-x---2--2-x--2-2-2-2-|  there should be highlights on the high
A----2------------0-----5-x-5-5-5-x---3--3-x--3-3-3-3-|  e string '5'.
E----3------------------------------------------------|


CHORUS THREE

Fmaj7       Em7             G           
Baby let me be your safe harbor
      Fmaj7                  Em7         C G C
Don't let the water come and carry you away.

          G                  D**          Cadd9
When your long day is over,
E----------------------------0-0---0-----3--3----0h3-3-3---|
B--------------0h1p0---1/3---3-3-x-3-x---3--3-x--3---3-3---|
G---------0----0-------0-----0-0-x-0-x---0--0-x--0---0-0---|
D---------0----0h2p0---2/4---4-4-x-4-x---2--2-x--2---2-2---|
A---------2------------0-----5-5-x-5-x---3--3-x--3---3-3---|
E---------3------------------------------------------------|

            G           D**          Cadd9
And you can barely drag your feet.
E-----------------------0-0---x-----3--3----3---3-3---|
B---------0h1p0---1/3---3-3-x-x-x---3--3-x--3---3-3---|
G----0----0-------0-----0-0-x-x-x---0--0-x--0---0-0---|
D----0----0h2p0---2/4---4-4-x-x-x---2--2-x--2h0-0-0---|
A----2------------0-----5-5-x-x-x---3--3-x--3---3-3---|
E----3------------------------------------------------|

                  Em7              C           
The weight of the world is on your shoulders,
                Am7               G  D**  Cadd9 
I know what you need,  
        E----------------------3-|
        B------------------1-----|
        G----------0-----2---2---|
        D------0h2-----2---------|
        A----0-------0-----------|
        E------------------------|

                    G  D* Cadd9    G  D* Cadd9 D**  
Bring it on home to me. * repeat entire intro [(I) + (II)] here *
            
Submit corrections


        Bring It On Home lessons Hard to play? Try these video lessons and learn fast Bring It On Home lessons
        
↑ Back to top | Tablatures and chords for acoustic guitar and electric guitar, ukulele, drums are parodies/interpretations of the original songs. You may use it for private study, scholarship, research or language learning purposes only