» » »

Little Big Town - Boondocks Tabs

Artists:  A B C D E F G H I J K L M N O P Q R S T U V W X Y Z # 

Boondocks Tabs

(ver. 2) Click to play this song!
Little Big Town
 Rating:
4/5 (4 votes)

 Boondocks lessons Tabs too difficult? Try these video lessons and learn fast
 
                (Intro)
e----------------------------------------------------------------------|
B----------------------------------------------------------------------|
G---9--12--9---12--9--7--9^--7--4--7--4--2--4^--2--0-------------------|
D----------------------------------------------------------------------|
A----------------------------------------------------------------------|
E----------------------------------------------------------------------|

e------------------------------------------------------------------------|
B------------------------------------------------------------------------|
G----0h2--4--2---1-------------------------------------------------------|
D----------------2-------------------------------------------------------|
A----------------2-------------------------------------------------------|
E------------------------------------------------------------------------|

i think its good now. i updated it, twice.
            
Submit corrections


        Boondocks lessons Hard to play? Try these video lessons and learn fast Boondocks lessons
        
↑ Back to top | Tablatures and chords for acoustic guitar and electric guitar, ukulele, drums are parodies/interpretations of the original songs. You may use it for private study, scholarship, research or language learning purposes only