Home » L » Liquido »

Liquido - Narcotic Tabs

Artists:  A B C D E F G H I J K L M N O P Q R S T U V W X Y Z # 

Narcotic Tabs

(ver. 2) Click to play this song!
Liquido
[Chorus]  (2x)      solo guitar
   C                              +               Dm                             +
E|(0)--------0---------|-0--------0-------------|-1---p0----1---p0----|-1---p0---1-------h3----|
B|------3---------3----|------3------------3----|---------------------|------------------------|
G|---------------------|------------------------|---------------------|------------------------|
D|-----------2---------|--------------2---------|-----------0---------|--------------0---------|
A|-3-------------------|-3----------------------|-0-------------------|-0----------------------|
E|---------------------|------------------------|---------------------|------------------------|

   F                              +               C                              +
E|-5---p3----5---p3----|-5---p3---5-------p3----|-0---------0---------|-0--------1--------0----|
B|---------------------|------------------------|------3---------3----|------------------------|
G|---------------------|------------------------|---------------------|------0-----------------|
D|-----------0---------|--------------0---------|-----------2---------|--------------2---------|
A|-0-------------------|-0----------------------|-3-------------------|-3----------------------|
E|---------------------|------------------------|---------------------|------------------------|


[Verse Part 1] (2x)
   C                                                                 Dm
E|---------------------|---------------------|-----------0---------|---------------------|
B|---------------------|---------------------|-1---h3---------1----|-3a------------------|
G|------0---------0----|------0---------0----|---------------------|-2a-------------2----|
D|-----------2---------|-----------2---------|-----------2---------|-----------0---------|
A|---------------------|-3-------------------|-3-------------------|-0a------------------|
E|-3-------------------|---------------------|---------------------|---------------------|
                              So        you    face it   with a      smile          There
                              Will      you    still recall my       name       And the

                         F                                           C
E|-1---------3---p1----|-1a------------------|-1-------------------|-0a------------------|
B|---------------------|-1a------------------|-----------1---h3----|-1a------------------|
G|------2--------------|----------------2----|------2--------------|----------------0----|
D|-----------0---------|-----------3---------|-----------3---------|-----------2---------|
A|-0-------------------|---------------------|---------------------|-3a------------------|
E|---------------------|-1a------------------|-1-------------------|---------------------|
   is no     need to     cry            For a  trifle's  more than   this
   month     it all began          Will you release me   with a      kiss


[Verse Part 2] (1x)
   C                                                     Dm                                  F
E|-----------------|-----------------|---------0-------|-----------------|-1-------1--h3---|-5---------------|
B|-----------------|-----------------|-1--h3-------1---|-3a--------------|-----------------|-----------------|
G|-----0-------0---|-----0-------0---|-----------------|-2a----------2---|-----2-----------|-----0-------0---|
D|---------2-------|---------2-------|---------2-------|---------0-------|---------0-------|---------0-------|
A|-----------------|-3---------------|-3---------------|-0a--------------|-0---------------|-0---------------|
E|-3---------------|-----------------|-----------------|-----------------|-----------------|-----------------|
                         Have    I     tried to draw the veil         If I have - how could I fail?      Did I

                     C                                                                       Dm
E|-5--\3---3-------|-0a--------------|-----------------|-----------------|-1--p0-----------|-----------------|
B|-------------3---|-1a--------------|-----------------|-----------------|---------3--p1---|-3a--------------|
G|-----------------|-------------0---|-----0-------0---|-----0-------0---|-----------------|-2a----------2---|
D|---------0-------|---------2-------|---------2-------|---------2-------|---------2-------|---------0-------|
A|-0---------------|-3a--------------|-----------------|-3---------------|-3---------------|-0a--------------|
E|-----------------|-----------------|-3---------------|-----------------|-----------------|-----------------|
   fear the consequence?                                                   dazed by careless words

                         F                     G                     A
E|-1---------3---p1----|---------------------|---------------------|-0a------------------|-------------------|
B|---------------------|-1a------------------|-3a------------------|-2a------------------|-------------------|
G|------2--------------|-2a-------------2----|-0a-------------0----|-2a-------------2----|------2---------2--|
D|-----------0---------|-----------3---------|-----------0---------|-----------2---------|-----------2-------|
A|-0-------------------|---------------------|---------------------|-0a------------------|-0-----------------|
E|---------------------|-1a------------------|-3a------------------|---------------------|-------------------|
   Cosy      in my       mind


[Chorus]  (2x)       ... as above ...       sing along to the guitar

E|------|---------0-------|-------|---------0-------|-----------|-------------0---|-----------------|-------|
B|------|-------------3---|-------|-------------3---|-----1-----|-----1---3-------|-----3-------1---|-------|
G|------|-----0-----------|-------|-----0-----------|-----------|-----------------|-----------------|-------|
D|------|-----------------|-------|-----------------|-----------|-----------------|-----------------|-------|
A|------|-----------------|-------|-----------------|-----------|-----------------|-----------------|-------|
E|------|-----------------|-------|-----------------|-----------|-----------------|-----------------|-------|
              I don't mind              I think so-       oo,         I  will let       you     go

[Verse Part 1] (2x)    ... as above ...

Now you shaped that liquid wax
Fit it out with crater cracks
Sweet devotion - my delight

Oh, you're such a pretty one
And the naked thrills of flesh and skin
Would tease me through the night


[Verse Part 2] (1x)    ... as above ...

Now I hate to leave you bare
If you need me I'll be there
Don't you ever let me down

Dazed by careless words
Cosy in my mind


[Chorus]  (2x)       ... as above ...


[FinalVerse] (2x)   
 C >                                   Dm                                  F
E|-0---------------|-1--p0-----------|-----------------|-1-------3--p1---|-1a--------------|-----------------|
B|-1---------------|---------3--p1---|-3a--------------|-----------------|-1a--------------|-1---------------|
G|-----------------|-----------------|-2a----------2---|-----2-----------|-------------2---|---------2-------|
D|-----------------|---------2-------|---------0-------|---------0-------|---------3-------|---------3-------|
A|-3---------------|-3---------------|-0a--------------|-0---------------|-----------------|-----------------|
E|-----------------|-----------------|-----------------|-----------------|-1a--------------|-1---------------|
                     And I touched your face       Nar-  cotic mind from   lazed,            Ma-     ry-
                     And I touched your face       Nar-  cotic mind from   lazed,            Ma-     ry-

   C                                   >                                   Dm
E|-----------------|-----------------|-0---------------|-1--p0-----------|-----------------|-1-------3--p1---|
B|-----------------|-----------------|-1---------------|---------3--p1---|-3a--------------|-----------------|
G|-0a--------------|-----0-------0---|-----------------|-----------------|-2a----------2---|-----2-----------|
D|---------2-------|---------2-------|-----------------|---------2-------|---------0-------|---------0-------|
A|-3a--------------|-----------------|-3---------------|-3---------------|-0a--------------|-0---------------|
E|-----------------|-3---------------|-----------------|-----------------|-----------------|-----------------|
   Jane                                                  And I called your name,  Like an addicted to coca- 
   Jane                                                  And I called your name,             my      coca-

  /-----------1st pass--------------------------------------------------\ /----------2nd pass---------------\
   F                                   C                                   C
E|-1a--------------|-1---------------|-0a--------------|-----------------|-0a--------------|-----------------|
B|-1a--------------|---------1--h3---|-1a--------------|-----------------|-1a--------------|-----------------|
G|-------------2---|-----2-----------|-------------0---|-----0-------0---|-------------0---|-----0-------0---|
D|---------3-------|---------3-------|---------2-------|---------2-------|---------2-------|---------2-------|
A|-----------------|-----------------|-3a--------------|-----------------|-3a--------------|-----------------|
E|-1a--------------|-1---------------|-----------------|-3---------------|-----------------|-3---------------|
   ine calls for the stuff he'd rather blame
                                                                          -ine.

            
Submit corrections

↑ Back to top | Tablatures and chords for acoustic guitar and electric guitar, ukulele, drums are parodies/interpretations of the original songs. You may use it for private study, scholarship, research or language learning purposes only