Home » L » Lior »

Lior - This Old Love Bass

Artists:  A B C D E F G H I J K L M N O P Q R S T U V W X Y Z # 

This Old Love Bass

(ver. 1) Click to play this song!
Lior
 Rating:
4/5 (5 votes)
                G|------------------------------------------------------|
D|------------------------------------------------------|
A|-----9--9-7-9-----------------------------------------| x3
E|-9-8----------9---------------------------------------|

G|------------------------------------------------------|
D|-------8-6---------6---6-7-8-----------6--------------|
A|-----8-----9-9-8-6---6---------8---9-6----------------|
E|-8-6-------------------------6---6--------------------|

G|------------------------------------------------------|
D|------11-------------11--8----------------------------|
A|---11-----6-6-----11-------8--------------------------|
E|-9------------9-9------------9------------------------|

G|------------------------------------------------------|
D|------------------------------------------------------|
A|-----9--9-7-9-----------------------------------------| 
E|-9-8----------9-9-------------------------------------|

G|------------------------------------------------------|
D|------------------------------------------------------|
A|-----9--9-7-9-----------------------------------------| x2
E|-9-8----------9---------------------------------------|

G|------------------------------------------------------|
D|-------8-6---------6---6-7-8-----------6--------------|
A|-----8-----9-9-8-6---6---------8---9-6----------------|
E|-8-6-------------------------6---6--------------------|

G|------------------------------------------------------|
D|------11-------------11--8----------------------------|
A|---11-----6-6-----11-------8--------------------------|
E|-9------------9-9------------9------------------------|

G|------------------------------------------------------|
D|--------------------8--6------------------------------|
A|-------6-8-8--8-6--------8-9--------------------------|
E|-6-8-8------------6-----------------------------------|

G|------------------------------------------------------|
D|--------------------6---------------------------------|
A|-------6-8-8--8-6-----9-9-----------------------------|
E|-6-8-8------------6-----------------------------------|

G|------------------------------------------------------|
D|------11-------------11--8----------------------------|
A|---11-----6-6-----11-------8--------------------------|
E|-9------------9-9------------9------------------------|

G|------------------------------------------------------|
D|------------------------------------------------------|
A|-----9--9-7-9-----------------------------------------|
E|-9-8----------9---------------------------------------|

G|------------------------------------------------------|
D|----------------10b(11)-------------------------------|
A|-----9--9-7-9-----------------------------------------|
E|-9-8----------9---------------------------------------|
            
Submit corrections

↑ Back to top | Tablatures and chords for acoustic guitar and electric guitar, ukulele, drums are parodies/interpretations of the original songs. You may use it for private study, scholarship, research or language learning purposes only