» » »

Lior - Daniel Tabs

Artists:  A B C D E F G H I J K L M N O P Q R S T U V W X Y Z # 

Daniel Tabs

(ver. 1) Click to play this song!
Lior
 Rating:
4/5 (5 votes)

 Daniel lessons Tabs too difficult? Try these video lessons and learn fast
 
                -------------------------------------------------------------------------------
-------------------------------------------------------------------------------


Tuning: standard


Verse:

    Em            Cmaj7         G9            D/F#  Bm7
E-|-------------|-------------|-------------|-------------|
B-|----0------0-|----0------0-|----0------0-|---0------0--|
G-|----0------0-|----0------0-|----2------2-|---2------2--|
D-|----2------2-|----2------2-|----0------0-|---0------0--|
A-|-2-----2-2---|-3-----3-3---|-------------|-------2-----|
E-|-------------|-------------|-3-----3-3---|-2-----------|

...except the higher run Lior sometimes does in the bass on the last bar:

    Em            Cmaj7         G9          ***
E-|-------------|-------------|-------------|-------------|
B-|----0------0-|----0------0-|----0------0-|---0------0--|
G-|----0------0-|----0------0-|----2------2-|---2------2--|
D-|----2------2-|----2------2-|----0------0-|-0------1----|
A-|-2-----2-2---|-3-----3-3---|-------------|-------------|
E-|-------------|-------------|-3-----3-3---|-------------|

Chorus uses the same picking style (with percussive slaps etc) as verse, but with alternating
bass done by the thumb.

   Bm                    Am7                   G                    G
e|-------------------------------------------------------------------------|
B|---7-x---7-----7----7----5-x---5-----5----5----3-x---3-----3----3--------|
G|---7-x---7-----7----7----5-x---5-----5----5----4-x---4-----4----4-(same)-|
D|---9-x---9---9------9----5-x---5---5------5----5-x---5---5------5--------|
A|-------9----------9----------7----------7----------5----------5----------|
E|-7---------------------5---------------------3---------------------------|

Use same style again over Bm Am7 G F then play the final D7sus4 on the fifth fret:

e|--------|
B|---8-x--|
G|---5-x--|
D|---7-x--| etc.
A|-5------|
E|--------|
            
Submit corrections


        Daniel lessons Hard to play? Try these video lessons and learn fast Daniel lessons
        
↑ Back to top | Tablatures and chords for acoustic guitar and electric guitar, ukulele, drums are parodies/interpretations of the original songs. You may use it for private study, scholarship, research or language learning purposes only