Home » L » Lionel Richie »

Lionel Richie - How Long Tabs

Artists:  A B C D E F G H I J K L M N O P Q R S T U V W X Y Z # 

How Long Tabs

(ver. 2) Click to play this song!
Lionel Richie
e|---------------------------------------------------------------------------|
B|---------------------------------------------------------------------------|
G|---------------------------------------------------------------------------|
D|--11-11-11--10--11-11------11--10------------------------------------------|
A|-----------------------13----------13--11--13------------------------------|
E|-----------------------------------------------13--------------------------|


e|---------------------------------------------------------------------------|
B|---------------------------------------------------------------------------|
G|---------------------------------------------------------------------------|
D|--11-11-11--10--11--10--11------10--13--10--11------10---------------------|
A|----------------------------13------------------13------13-----------------|
E|---------------------------------------------------------------------------|


e|---------------------------------------------------------------------------|
B|---------------------------------------------------------------------------|
G|---------------------------------------------------------------------------|
D|--11-11-11--10--11--11------11---------------------------------------------|
A|------------------------13------10--13--11--13-----------------------------|
E|------------------------------------------------13-------------------------|


e|---------------------------------------------------------------------------|
B|---------------------------------------------------------------------------|
G|---------------------------------------------------------------------------|
D|--11-11-11--10--11--11------10--13--10--11---------------------------------|
A|------------------------13------------------13-13--------------------------|
E|---------------------------------------------------------------------------|


e|---------------------------------------------------------------------------|
B|---------------------------------------------------------------------------|
G|---------------------------------------------------------------------------|
D|--11--10--11--10-10--11--10------------------------------------------------|
A|-----------------------------13--11----------------------------------------|
E|---------------------------------------------------------------------------|


e|---------------------------------------------------------------------------|
B|---------------------------------------------------------------------------|
G|---------------------------------------------------------------------------|
D|---------------------------------------------------------------------------|
A|--11--13--11------10--10--11--10-------------------------------------------|
E|--------------13------------------13--11-----------------------------------|



e|----------------------------------------------------------------------------------|
B|----------------------------------------------------------------------------------|
G|----------------------------------------------------------------------------------|
D|--11--10--11--10-10--11--10--------------------------10----10-----10--11--1-------|
A|-----------------------------13--11--13-11-13-11-13-----13----13--------------13--|
E|----------------------------------------------------------------------------------|




                   Thanks :) i hope u like!
                    sorry for that i don't put these things - / ,\ and ~ because i don't 
really know where to put these things :D lol

                     Thanks
            
Submit corrections

↑ Back to top | Tablatures and chords for acoustic guitar and electric guitar, ukulele, drums are parodies/interpretations of the original songs. You may use it for private study, scholarship, research or language learning purposes only