» » »

Linkin Park - Breaking The Habit Tabs

Artists:  A B C D E F G H I J K L M N O P Q R S T U V W X Y Z # 

Breaking The Habit Tabs

(ver. 2) Click to play this song!
Linkin Park
 Rating:
4/5 (4 votes)
                

Tuning: Standard Tuning
	E A D G B e

Note:   All I could hear in the song were runs, no chords.
	I couldn't tell if during the chorus the first note
	was changing, but after listening to it over and over
	I'm pretty sure that the bass line is changing and the
	guitar part keeps constant.  I wrote the chorus two ways
	if you like a more mellow sound.


Intro (Play 6X)     then go here
e--0--5-3-2-0--|-0-3-2-0--0--5-3-2-0--
B-------------o|--4-------------------
G--------------|----------------------
D-------------o|----------------------
A--------------|----------------------
E--------------|----------------------

Verse (a lot)
e---------------------------
B--0--2-3-0-0--0-1-1-0-0----
G---------------------------
D---------------------------
A---------------------------
E---------------------------


Chorus (a lot)
e-----------	   ---------------
B-0--5-3-3-5	   ---------------
G----------- or -----9--7-7-9--  
D-----------	   ---------------
A-----------	   --7------------
E-----------	   ---------------
            
Submit corrections

↑ Back to top | Tablatures and chords for acoustic guitar and electric guitar, ukulele, drums are parodies/interpretations of the original songs. You may use it for private study, scholarship, research or language learning purposes only