Home » L » Lincoln Brewster »

Lincoln Brewster - This Love Tabs

Artists:  A B C D E F G H I J K L M N O P Q R S T U V W X Y Z # 

This Love Tabs

(ver. 1) Click to play this song!
Lincoln Brewster
This Love by Lincoln Brewster

Hey Guys this is my 2nd tab so excuse me for the many mistakes i made on this. I 
learned this song by ear so i couldn't get every note spot on, but this tab should 
give you an idea on how the intro & Solo should kinda sound like lol GOD Bless You 
and All Glory to GOD. 


Intro

E|-------------------------------------------------------------------------|
B|-14x5--14-15-14----12x5--12-14-12---10x5-10-12-10---7-7-7-7-9-9-9/10br---|
G|-----14--------14br----14--------13-----9--------11----------------------|
D|-------------------------------------------------------------------------|
A|-------------------------------------------------------------------------|
D|-------------------------------------------------------------------------|


Solo
E|---------------------------------------------------------------|
B|-17b----------------14-15-14/12--------------------------------|
G|----16p14-16-16/18--14---------14p13p11------------------------|
D|---------------------------------------14p12p11/9--7/9-7/9b----|
A|-------------------------------------------------12------------|
E|---------------------------------------------------------------|

E|-------------------------------------------------------|
B|-12b-12p10-10-10b-12-----------------------------------|
G|--------------------11b--------------------------------|
D|-------------------------9h11-9------------------------|
A|-----------------------12------12p11-12p11p9-----------|
E|-------------------------------------------------------|

    All Picked Very Fast
E|-17b-16-14---------------19b-17--------17------------------|
B|----------17-15-14-------------19-18-19--19b-17b-----------|
G|------------------16-14----------------------18b-----------|
D|-----------------------------------------------------------|
A|-----------------------------------------------------------|
E|-----------------------------------------------------------|

E|---------------------------------------------------------------|
B|---------------------------------------------------------------|
G|--16-14p13-14--------------------------------------------------|
D|-------------16-14h16------------------------------------------|
A|---------------------16-14-11h12p11-14/16-14/16----------------|
E|---------------------------------------------------------------|

Verse- A, E, F#m, D
Pre-Chorus- D, E, F#m, E
Chorus- A, E, F#m, D
            
Submit corrections

↑ Back to top | Tablatures and chords for acoustic guitar and electric guitar, ukulele, drums are parodies/interpretations of the original songs. You may use it for private study, scholarship, research or language learning purposes only