Home » L » Lincoln Brewster »

Lincoln Brewster - Everlasting God Bass

Artists:  A B C D E F G H I J K L M N O P Q R S T U V W X Y Z # 

Everlasting God Bass

(ver. 1) Click to play this song!
Lincoln Brewster
----------------------|
----------------------|
--2-2-2-2-2-2-2-2-2-2-|
----------------------|
Strength will Rise as we wait upon the lord,
----------------------|
----------------------|
--2-2-2-2-2-2-2-2-2-2-|
----------------------|
wait upon the lord,
-----------------------------|
-----------------------------|
--2-2-2-2-2-2-2-2-2-2------2-|
-----------------------0-----|
we will wait upon the lord





--------------------------------|
--------------------------------|
-6---7----6----7----9---11----9-|
--------------------------------|
Our God, You Reign for...ev...er


--------------------------------|
--------------------------------|
-6---7----6----7----9---11----9-|
--------------------------------|
Our Hope Our Strong De..Liv..erer


---------------------------------|
---------------------------------|
-2-2-2-2-2-2-2-2-2-2-6---7-------|
---------------------------------|
You are the everlasting God

---------------------------------|
---------------------------------|
-2-2-2-2-2-2-2-2-2-2-6---7-------|
---------------------------------|
The everlasting God
            
Submit corrections

↑ Back to top | Tablatures and chords for acoustic guitar and electric guitar, ukulele, drums are parodies/interpretations of the original songs. You may use it for private study, scholarship, research or language learning purposes only