Home » L » Lights »

Lights - Tabs Tabs

Artists:  A B C D E F G H I J K L M N O P Q R S T U V W X Y Z # 

Tabs Tabs

(ver. 1) Click to play this song!
Lights
[Verse 1]
e|---------------------------------------------------------------------------|
B|---------------------------------------------------------------------------|
G|-0--2----4--------------0---2--4-------------------------------------------|
D|--------------0---h2---------------0---h2----------------------------------|
A|---------------------------------------------------------------------------|
E|-0--2----3----0---------0---2--3---0---------------------------------------|
 
Baby the night is young   Pour us up a sauvignon
And let the feeling come  Bring me back to the morning sun
 
 
[Pre-Chorus 1]
e|---------------------------------------------------------------------------|
B|---------------------------------------------------------------------------|
G|-0--2----4-------------------------0---2--4--------------------------------|
D|--------------0---h2--------------------------0---h2-----------------------|
A|---------------------------------------------------------------------------|
E|-0--2----3----0--------------------0---2--3---0----------------------------|
 
There's no time to waste anymore    Don't waste my time
C'mon get me out the door           I know you've always been the one
To lift me up like helium
 
 
[Chorus]
e|---------------------------------------------------------------------------|
B|---------------------------------------------------------------------------|
G|-0--2----4------------------------------------0---2--4---------------------|
D|--------------0---h2-------------------------------------0---h2------------|
A|---------------------------------------------------------------------------|
E|-0--2----3----0-------------------------------0---2--3---0-----------------|
 
keep on doing it Ain't ever gotta stop          Just keep on doing it Nobody's keeping tabs on us
Baby don't hold back Let's do it up like that   Keep on doing it Nobody's keeping tabs on us
Tabs on us
 
 
[Verse 2]
e|---------------------------------------------------------------------------|
B|---------------------------------------------------------------------------|
G|-0--2----4------------------------------------0---2--4---------------------|
D|--------------0---h2-------------------------------------0---h2------------|
A|---------------------------------------------------------------------------|
E|-0--2----3----0-------------------------------0---2--3---0-----------------|
 
This ain't gonna be poetry (Poetry)            I'm a hella lot harder to read (Harder to read)
And I can barely breathe (I can barely breathe) But baby I know you're feeling me
 
 
[Pre-Chorus 2]
e|---------------------------------------------------------------------------|
B|---------------------------------------------------------------------------|
G|-0--2----4-----------------------------------------------0---2--4----------|
D|--------------0---h2------------------------------------------------0---h2-|
A|---------------------------------------------------------------------------|
E|-0--2----3----0------------------------------------------0---2--3---0------|
 
There no time and place anymore                            Oh, grab my waist, baby
Get me on the floor (Grab my waist, get me on the floor)   I know you'll always be the one (Be the one)
To pick me up when the night is done
 
 
[Chorus]
[Chorus]
e|---------------------------------------------------------------------------|
B|---------------------------------------------------------------------------|
G|-0--2----4------------------------------------0---2--4---------------------|
D|--------------0---h2-------------------------------------0---h2------------|
A|---------------------------------------------------------------------------|
E|-0--2----3----0-------------------------------0---2--3---0-----------------|
 
keep on doing it Ain't ever gotta stop          Just keep on doing it Nobody's keeping tabs on us
Baby don't hold back Let's do it up like that   Keep on doing it Nobody's keeping tabs on us
Tabs on us                                      Nobody's keeping tabs on us
 
 
[Chorus]
[Chorus]
e|---------------------------------------------------------------------------|
B|---------------------------------------------------------------------------|
G|-0--2----4------------------------------------0---2--4---------------------|
D|--------------0---h2-------------------------------------0---h2------------|
A|---------------------------------------------------------------------------|
E|-0--2----3----0-------------------------------0---2--3---0-----------------|
 
keep on doing it Ain't ever gotta stop          Just keep on doing it Nobody's keeping tabs on us
Baby don't hold back Let's do it up like that   Keep on doing it Nobody's keeping tabs on us
Tabs on us                                      Nobody's keeping tabs on us
            
Submit corrections

↑ Back to top | Tablatures and chords for acoustic guitar and electric guitar, ukulele, drums are parodies/interpretations of the original songs. You may use it for private study, scholarship, research or language learning purposes only