Home » L » Lights »

Lights - February Air Tabs

Artists:  A B C D E F G H I J K L M N O P Q R S T U V W X Y Z # 

February Air Tabs

(ver. 1) Click to play this song!
Lights
Tuning E A D G B e


Intro: Guitar 1 (transcribed from keyboard)
e|---------0------0-------0-----0---------0------0--------0-----0-----|
B|--------------------------------------------------------------------|
G|----12-----12-------12----12----------------------------------------|
D|--10--10-----10----9--9-----9------14-----14--------10----10--------|
A|---------------------------------12--12-----12-----8--8-----8-------|
E|--------------------------------------------------------------------|
                                                                      |
Intro: Guitar 2 (transcribed from Synth)                              |
e|------15--12----------15--12----------15--12----------13--12--------|
B|--13----------13--12----------12------------------------------13----|
G|----------------------------------14----------14--10----------------|
D|--------------------------------------------------------------------|
A|--------------------------------------------------------------------|
E|--------------------------------------------------------------------|

Intro: Guitar 1 (transcribed from keyboard)
e|---------0------0-------0-----0---------0------0--------0-----0-----|
B|--------------------------------------------------------------------|
G|----12-----12-------12----12----------------------------------------|
D|--10--10-----10----9--9-----9------14-----14--------10----10--------|
A|---------------------------------12--12-----12-----8--8-----8-------|
E|--------------------------------------------------------------------|
                                                                      |
Intro: Guitar 2 (transcribed from Synth)                              |
e|------15--12----------15--12----------15--12----------13--12--------|
B|--13----------13--12----------12------------------------------13----|
G|----------------------------------14----------14--10----------------|
D|--------------------------------------------------------------------|
A|--------------------------------------------------------------------|
E|--------------------------------------------------------------------|

Verse 1: Guitar 1 (transcribed from keyboard) “If you don’t believe me”
e|---------0------0-------0-----0---------0------0--------0-----0-----|
B|--------------------------------------------------------------------|
G|----12-----12-------12----12----------------------------------------|
D|--10--10-----10----9--9-----9------14-----14--------10----10--------|
A|---------------------------------12--12-----12-----8--8-----8-------|
E|--------------------------------------------------------------------|

Verse 1: Guitar 1 (transcribed from keyboard) “You mustn’t tell me”
e|---------0------0-------0-----0---------0------0--------------------|
B|--------------------------------------------------------------------|
G|----12-----12-------12----12----------------------------------------|
D|--10--10-----10----9--9-----9------14-----14------------------------|
A|---------------------------------12--12-----12-----8----------------|
E|--------------------------------------------------------------------|

Verse 1: Guitar 1 (transcribed from keyboard) “We walk the city”
e|---------0------0-------0-----0---------0------0--------0-----0-----|
B|--------------------------------------------------------------------|
G|----12-----12-------12----12----------------------------------------|
D|--10--10-----10----9--9-----9------14-----14--------10----10--------|
A|---------------------------------12--12-----12-----8--8-----8-------|
E|--------------------------------------------------------------------|

Verse 1: Guitar 1 (transcribed from keyboard) “So wont you tell me”
e|---------0------0-------0-----0---------0------0--------0-----0-----|
B|--------------------------------------------------------------------|
G|----12-----12-------12----12----------------------------------------|
D|--10--10-----10----9--9-----9------14-----14--------10----10--------|
A|---------------------------------12--12-----12-----8--8-----8-------|
E|--------------------------------------------------------------------|

Pre Chorus: Guitar 1 (transcribed from keyboard)
e|----------------------------------13-12-----13-12----13-12----13-12-|
B|------------------------------------------13-------13------13-------|
G|------------------9-------12----------------------------------------|
D|----10-----12-------------------------------------------------------|
A|--------------------------------------------------------------------|
E|--------------------------------------------------------------------|
                                                                      |
Pre Chorus: Guitar 2 (transcribed from keyboard)                      |
e|--------------------------------------------------------------------|
B|--------------------------------------------------------------------|
G|--5------7------9------12------14-----------------------------------|
D|--x------x------x-------x-------x-----------------------------------|
A|--3------5------7------10------12-----------------------------------|
E|--------------------------------------------------------------------|

Chorus: Guitar 1 (transcribed from keyboard) “My arms get cold...”
e|--------12-----12------10----10--------8------8----------8------8---|
B|-------------------------------------8-----8-----------8-----8------|
G|----12-----12-------12----12----------------------------------------|
D|--10--10-----10----9--9-----9----7-----------7-------10-------------|
A|---------------------------------------------------8-----------8----|
E|--------------------------------------------------------------------|

Chorus: Guitar 1 (transcribed from keyboard) “Please don’t lose hold”
e|--------12-----12------10----10--------8------8----------8------8---|
B|-------------------------------------8-----8-----------8-----8------|
G|----12-----12-------12----12----------------------------------------|
D|--10--10-----10----9--9-----9----7-----------7-------10-------------|
A|---------------------------------------------------8-----------8----|
E|--------------------------------------------------------------------|

Post Chorus: Guitar 1 (transcribed from keyboard)
e|---------0------0-------0-----0-------------------------------------|
B|--------------------------------------------------------------------|
G|----12-----12-------12----12----------------------------------------|
D|--10--10-----10----9--9-----9---------------------------------------|
A|--------------------------------------------------------------------|
E|--------------------------------------------------------------------|
                                                                      |
Post Chorus: Guitar 2 (transcribed from Synth)                        |
e|------15--12----------15--12----------------------------------------|
B|--13----------13--12----------12------------------------------------|
G|--------------------------------------------------------------------|
D|--------------------------------------------------------------------|
A|--------------------------------------------------------------------|
E|--------------------------------------------------------------------|

Verse 2: Guitar 1 (transcribed from keyboard) “I know you’re...”
e|---------0------0-------0-----0---------0------0--------0-----0-----|
B|--------------------------------------------------------------------|
G|----12-----12-------12----12----------------------------------------|
D|--10--10-----10----9--9-----9------14-----14--------10----10--------|
A|---------------------------------12--12-----12-----8--8-----8-------|
E|--------------------------------------------------------------------|

Verse 2: Guitar 1 (transcribed from keyboard) “Say that you’re...”
e|---------0------0-------0-----0---------0------0--------------------|
B|--------------------------------------------------------------------|
G|----12-----12-------12----12----------------------------------------|
D|--10--10-----10----9--9-----9------14-----14------------------------|
A|---------------------------------12--12-----12-----8----------------|
E|--------------------------------------------------------------------|

Pre Chorus: Guitar 1 (transcribed from keyboard)
e|----------------------------------13-12-----13-12----13-12----13-12-|
B|------------------------------------------13-------13------13-------|
G|------------------9-------12----------------------------------------|
D|----10-----12-------------------------------------------------------|
A|--------------------------------------------------------------------|
E|--------------------------------------------------------------------|
                                                                      |
Pre Chorus: Guitar 2 (transcribed from keyboard)                      |
e|--------------------------------------------------------------------|
B|--------------------------------------------------------------------|
G|--5------7------9------12------14-----------------------------------|
D|--x------x------x-------x-------x-----------------------------------|
A|--3------5------7------10------12-----------------------------------|
E|--------------------------------------------------------------------|

Chorus: Guitar 1 (transcribed from keyboard) “My arms get cold”
e|--------12-----12------10----10--------8------8----------8------8---|
B|-------------------------------------8-----8-----------8-----8------|
G|----12-----12-------12----12----------------------------------------|
D|--10--10-----10----9--9-----9----7-----------7-------10-------------|
A|---------------------------------------------------8-----------8----|
E|--------------------------------------------------------------------|

Chorus: Guitar 1 (transcribed from keyboard) “Please don’t lose hold”
e|--------12-----12------10----10--------8------8----------8------8---|
B|-------------------------------------8-----8-----------8-----8------|
G|----12-----12-------12----12----------------------------------------|
D|--10--10-----10----9--9-----9----7-----------7-------10-------------|
A|---------------------------------------------------8-----------8----|
E|--------------------------------------------------------------------|

Chorus: Guitar 1 (transcribed from keyboard) “My arms get cold”
e|--------12-----12------10----10--------8------8----------8------8---|
B|-------------------------------------8-----8-----------8-----8------|
G|----12-----12-------12----12----------------------------------------|
D|--10--10-----10----9--9-----9----7-----------7-------10-------------|
A|---------------------------------------------------8-----------8----|
E|--------------------------------------------------------------------|

Chorus: Guitar 1 (transcribed from keyboard) “Please don’t lose hold”
e|--------12-----12------10----10--------8------8----------8------8---|
B|-------------------------------------8-----8-----------8-----8------|
G|----12-----12-------12----12----------------------------------------|
D|--10--10-----10----9--9-----9----7-----------7-------10-------------|
A|---------------------------------------------------8-----------8----|
E|--------------------------------------------------------------------|

Bridge: Guitar 3
e|--------------------------------------------------------------------|
B|--3-----------------------------------3-----------------------------|
G|--2-----------------------------------2-----------------------------|
D|--0-----------------3-----------------0----------------3------------|
A|--0-----------------3-----------------0----------------3------------|
E|--------------------1----------------------------------1------------|

Bridge: Guitar 3
e|--------------------------------------------------------------------|
B|--3-----------------------------------3--------------------------3--|
G|--2-----------------------------------2--------------------------2--|
D|--0-----------------3-----------------0----------------3---------0--|
A|--0-----------------3-----------------0----------------3------------|
E|--------------------1----------------------------------1------------|

Chorus: Guitar 1 (transcribed from keyboard) “My arms get cold”
e|--------12-----12------10----10--------8------8----------8------8---|
B|-------------------------------------8-----8-----------8-----8------|
G|----12-----12-------12----12----------------------------------------|
D|--10--10-----10----9--9-----9----7-----------7-------10-------------|
A|---------------------------------------------------8-----------8----|
E|--------------------------------------------------------------------|

Chorus: Guitar 1 (transcribed from keyboard) “Please don’t lose hold”
e|--------12-----12------10----10--------8------8----------8------8---|
B|-------------------------------------8-----8-----------8-----8------|
G|----12-----12-------12----12----------------------------------------|
D|--10--10-----10----9--9-----9----7-----------7-------10-------------|
A|---------------------------------------------------8-----------8----|
E|--------------------------------------------------------------------|

Chorus: Guitar 1 (transcribed from keyboard) “My arms get cold”
e|--------12-----12------10----10--------8------8----------8------8---|
B|-------------------------------------8-----8-----------8-----8------|
G|----12-----12-------12----12----------------------------------------|
D|--10--10-----10----9--9-----9----7-----------7-------10-------------|
A|---------------------------------------------------8-----------8----|
E|--------------------------------------------------------------------|

Chorus: Guitar 1 (transcribed from keyboard) “Please don’t lose hold”
e|--------12-----12------10----10--------8------8----------8------8---|
B|-------------------------------------8-----8-----------8-----8------|
G|----12-----12-------12----12----------------------------------------|
D|--10--10-----10----9--9-----9----7-----------7-------10-------------|
A|---------------------------------------------------8-----------8----|
E|--------------------------------------------------------------------|

Chorus: Guitar 1 (transcribed from keyboard) “There, there, there”
e|--------12-----12------10----10--------8------8----------8------8---|
B|-------------------------------------8-----8-----------8-----8------|
G|----12-----12-------12----12----------------------------------------|
D|--10--10-----10----9--9-----9----7-----------7-------10-------------|
A|---------------------------------------------------8-----------8----|
E|--------------------------------------------------------------------|
                                                                      |
Intro: Guitar 2 (transcribed from Synth)                              |
e|------15--12----------15--12----------15--12----------13--12--------|
B|--13----------13--12----------12------------------------------13----|
G|----------------------------------14----------14--10----------------|
D|--------------------------------------------------------------------|
A|--------------------------------------------------------------------|
E|--------------------------------------------------------------------|

Chorus: Guitar 1 (transcribed from keyboard) “Air, air, air”
e|--------12-----12------10----10--------8------8----------8------8---|
B|-------------------------------------8-----8-----------8-----8------|
G|----12-----12-------12----12----------------------------------------|
D|--10--10-----10----9--9-----9----7-----------7-------10-------------|
A|---------------------------------------------------8-----------8----|
E|--------------------------------------------------------------------|
                                                                      |
Intro: Guitar 2 (transcribed from Synth)                              |
e|------15--12----------15--12----------15--12----------13--12--------|
B|--13----------13--12----------12------------------------------13----|
G|----------------------------------14----------14--10----------------|
D|--------------------------------------------------------------------|
A|--------------------------------------------------------------------|
E|--------------------------------------------------------------------|

Finished
            
Submit corrections

↑ Back to top | Tablatures and chords for acoustic guitar and electric guitar, ukulele, drums are parodies/interpretations of the original songs. You may use it for private study, scholarship, research or language learning purposes only