» » »

Lifetime - Turnpike Gates Chords

Artists:  A B C D E F G H I J K L M N O P Q R S T U V W X Y Z # 

Turnpike Gates Chords

(ver. 1) Click to play this song!
Lifetime
 Rating:
4.3/5 (15 votes)

 Turnpike Gates lessons Tabs too difficult? Try these video lessons and learn fast
 
                [Intro]

G|---------------------------------------------------|
D|------------------7-7-7-7-7-7-7-7-7-7-7-7-7-7-7-7--|
A|----------5-5-5-5----------------------------------|
E|--2-2-2-2------------------------------------------|

G|---------------------------------------------------|
D|---------------------------------------------------|
A|----------5-5-5-5-0-0-0-0-0-0-0-0-0-0-0-0-0-0-0-0--|
E|--2-2-2-2------------------------------------------|


[Chorus]

G|---------------------------------------------------------------------------------------------------|
D|---------------------------------------------------------------------------------------------------|
A|--0-0-0-0-0-0-0-0-0-0---0---7-7-7-7-7-7-7-7-7-7-7-7-----------------------5-5-5-5-5-5-5-5-5-5-5-5--| x2
E|----------------------4-----------------------------2-2-2-2-2-2-2-2--0-0---------------------------|


[Fill]

G|---------------------------|
D|---------------------------|
A|--0-0-0-0-0-0-0-0-0-0------| x3
E|----------------------4-4--|

G|---------------------------|
D|---------------------------|
A|--0-0-0-0-0-0-2-2-0-0------|
E|----------------------4-4--|


[Verse]

G|------------------------------------------------------------------------------------------------|
D|------------------------------------------------------------------------------------------------|
A|--------------------------7-7-7-7-7-7-7-7-7-7-7-7--0-0-0-0-0-0-0-0-4-4-5-5-5-5-5-5-5-5-5-5-5-5--| x2
E|--2-2-2-2-2-2-2-2-2-2-2-2-----------------------------------------------------------------------|

G|---7~--7~----7----|
D|---0~--0~------7--|
A|---5~--5~---------|
E|------------------|


[Chorus]

G|---------------------------------------------------------------------------------------------------|
D|---------------------------------------------------------------------------------------------------|
A|--0-0-0-0-0-0-0-0-0-0---0---7-7-7-7-7-7-7-7-7-7-7-7-----------------------5-5-5-5-5-5-5-5-5-5-5-5--|
E|----------------------4-----------------------------2-2-2-2-2-2-2-2--0-0---------------------------|

G|---------------------------------------------------------------------------------------------------|
D|---------------------------------------------------------------------------------------------------|
A|--0-0-0-0-0-0-0-0-0-0---0---7-7-7-7-7-7-7-7-7-7-7-7-9-9-9-9-9-9-9-9--7-7--5-5-5-5-5-5-5-5-5-5-5-5--|
E|----------------------4----------------------------------------------------------------------------|


[Outro]

G|----------------------------------------------------------------------------|
D|----------------------------------------------------------------------------|
A|--0-0-0-0-0-0-0-0-0-0-0-0-0-------------------------5-5-5-5-5-5-5-5-5-5-5-5-|
E|----------------------------4-4-4-4-4-4-4-4-4-4-4-4-------------------------|

G|----------------------------------------------------------------------------------------------------|
D|----------------------------------------------------------------------------------------------------|
A|--0-0-0-0-0-0-0-0-0-0-0-0-0-------------------------5-5-5-5-5-5-5-5-5-5-5-5-0-0-0-0-0-0-0-0-0-0-0-0-|
E|----------------------------4-4-4-4-4-4-4-4-4-4-4-4-------------------------------------------------|

G|----------------------------------------------------------------------------|
D|----------------------------------------------------------------------------|
A|--0-0-0-0-0-0-0-0-0-0-0-0-0-------------------------5-5-5-5-5-5-5-5-5-5-5-5-|
E|----------------------------4-4-4-4-4-4-4-4-4-4-4-4-------------------------|

G|----------------------------------------------------------------------------------------------------|
D|----------------------------------------------------------------------------------------------------|
A|--0-0-0-0-0-0-0-0-0-0-0-0-0-------------------------5-5-5-5-5-5-5-5-5-5-5-5-0-0-0-0-0-0-0-0-0-0-0-0-|
E|----------------------------4-4-4-4-4-4-4-4-4-4-2-0-------------------------------------------------|

G|--------------------------------------------------------------------------|
D|--------------------------------------------------------------------------|
A|--------------------------5-5-5-5-5-5-5-5-5-5-5-5-0-0-0-0-0-0-0-0-0-0-0-0-|
E|--4-4-4-4-4-4-4-4-4-4-4-4-------------------------------------------------|

G|-------------------------------------------------------2------|
D|----------------------------------------------------2--2--2~--|
A|--------------------------5-5-5-5-5-5-5-5-5-5-5-5---0--0--0~--|
E|--4-4-4-4-4-4-4-4-4-4-4-4-------------------------------------|


            
Submit corrections


        Turnpike Gates lessons Hard to play? Try these video lessons and learn fast Turnpike Gates lessons
        
↑ Back to top | Tablatures and chords for acoustic guitar and electric guitar, ukulele, drums are parodies/interpretations of the original songs. You may use it for private study, scholarship, research or language learning purposes only