» » »

Liam Lynch - West Hollywood Whatever Tabs

Artists:  A B C D E F G H I J K L M N O P Q R S T U V W X Y Z # 

West Hollywood Whatever Tabs

(ver. 1) Click to play this song!
Liam Lynch
 Rating:
4/5 (4 votes)

 West Hollywood Whatever lessons Tabs too difficult? Try these video lessons and learn fast
 
                WHATEVER!

|--------------------------------------------------------------                               
|--------------------------------------------------------------
|--------------------------------------------------------------
|--------------------------------------------------------------
|--------------------------------------------------------------
|----0-3-4-5-5-5-5----0-3-4-5-5-5-5----0-3-4-5-----------------

singing part

|--------------------------------------------------------------                               
|--------------------------------------------------------------
|--------------------------------------------------------------
|--------------------------------------------------------------
|--------------------------------------------------------------
|----0-3-4-5-5-5-5----0-3-4-5-5-5-5----0-3-4-5-----------------

singin part

|--------------------------------------------------------------                               
|--------------------------------------------------------------
|--------------------------------------------------------------
|--------------------------------------------------------------
|--------------------------------------------------------------
|----0-3-4-5-5-5-5----0-3-4-5-5-5-5----0-3-4-5-----------------

cause this is my west holly wood lifestyle whatever

|--------------------------------------------------------------                               
|--------------------------------------------------------------
|--------------------------------------------------------------
|--------------------------------------------------------------
|--------------------------------------------------------------
|----0-3-4-5-5-5-5----0-3-4-5-5-5-5----0-3-4-5-5-5-5-----------   play this 3 times


singing part

|--------------------------------------------------------------                               
|--------------------------------------------------------------
|--------------------------------------------------------------
|--------------------------------------------------------------
|--------------------------------------------------------------
|----0-3-4-5-5-5-5----0-3-4-5-5-5-5----0-3-4-5-----------------

singing part

cause this is my west holly wood lifestyle whatever
|--------------------------------------------------------------                               
|--------------------------------------------------------------
|--------------------------------------------------------------
|--------------------------------------------------------------
|--------------------------------------------------------------
|----0-3-4-5-5-5-5----0-3-4-5-5-5-5----0-3-4-5-5-5-5-----------	play this two times

THAT"S IT!!!
            
Submit corrections


        West Hollywood Whatever lessons Hard to play? Try these video lessons and learn fast West Hollywood Whatever lessons
        
↑ Back to top | Tablatures and chords for acoustic guitar and electric guitar, ukulele, drums are parodies/interpretations of the original songs. You may use it for private study, scholarship, research or language learning purposes only