» » »

Liam Lynch - United Stated Of Whatever Tabs

Artists:  A B C D E F G H I J K L M N O P Q R S T U V W X Y Z # 

United Stated Of Whatever Tabs

(ver. 1) Click to play this song!
Liam Lynch
 Rating:
4/5 (4 votes)

 United Stated Of Whatever lessons Tabs too difficult? Try these video lessons and learn fast
 
                STANDARD TUNING (EADGBe)

RIFF
e|---------------------------------------------|
B|---------------------------------------------|
G|---------------------------------------------|
D|----5-6-7-7-7-7-7----5-6-7-7-7-7-7----5-6-7--|
A|----5-6-7-7-7-7-7----5-6-7-7-7-7-7----5-6-7--|
E|--0-3-4-5-5-5-5-5--0-3-4-5-5-5-5-5--0-3-4-5--|

CHORUS
e|---------------------------------------------|
B|---------------------------------------------|
G|---------------------------------------------|
D|--5----5----5-6-7-7-7-7-7--------------------|x2
A|--5-x8-5-x8-5-6-7-7-7-7-7--------------------|
E|--7----3----3-4-5-5-5-5-5--------------------|


Weeeeeeeeeeeeeeeeeeeee :D
PEACE OUT !
            
Submit corrections


        United Stated Of Whatever lessons Hard to play? Try these video lessons and learn fast United Stated Of Whatever lessons
        
↑ Back to top | Tablatures and chords for acoustic guitar and electric guitar, ukulele, drums are parodies/interpretations of the original songs. You may use it for private study, scholarship, research or language learning purposes only