» » »

Liam Lynch - Try Me Tabs

Artists:  A B C D E F G H I J K L M N O P Q R S T U V W X Y Z # 

Try Me Tabs

(ver. 1) Click to play this song!
Liam Lynch
 Rating:
4/5 (4 votes)

 Try Me lessons Tabs too difficult? Try these video lessons and learn fast
 
                Tuning: Standard (low to high): E A D G B e

Hey this is one of Liam’s serious songs of his Fake Songs album. It’s a good track. You’d have to know the track to know what the timing is like. Seeing as I’m probably one of the only real Lynch fans here, this one’s for the fellow hard Lynch fans. I don’t have the solo, but here’s the song.

Intro
E----------------------------------------------|
B----------- ----------------------------------|
G-------------- -------------------------------|
D------2---4---2---4---2--2---4---2---4--------|
A------0---0---0---0---0--0---0---0---0--------|
E----------------------------------------------|



Verse

D-2--4--2--4---2--2---4---2---4--|--7-\--5-\--4-\--3-\--3-\--3--/--5--/--6--/-7
A-0--0--0--0---0--0---0---0---0--|--7-\--5-\--4-\--3-\--3-\--3--/--5--/--6--/-7-
E--------------------------------|--5-\--3-\--2-\--1-\--1-\--1--/--3--/--4--/-5-
Repeat this part than go into next part

Bridge
B-----------------------------------------------------------------------
G-----5-5-5-5-5-5-5-5-5-5-5-5-5-5-5-5------------------------- ---------
D-----5-5-5-5-5-5-5-5-5-5-5-5-5-5-5-5--2-2-2-2-2-2-2--5-5-5-5-5-5-5-5---
A-----3-3-3-3-3-3-3-3-3-3-3-3-3-3-3-3--2-2-2-2-2-2-2--5-5-5-5-5-5-5-5---
E--------------------------------------0-0-0-0-0-0-0--3-3-3-3-3-3-3-3---
“I find that every soul’s the same”
            
Submit corrections


        Try Me lessons Hard to play? Try these video lessons and learn fast Try Me lessons
        
↑ Back to top | Tablatures and chords for acoustic guitar and electric guitar, ukulele, drums are parodies/interpretations of the original songs. You may use it for private study, scholarship, research or language learning purposes only