» » »

Liam Lynch - Sir Track Tabs

Artists:  A B C D E F G H I J K L M N O P Q R S T U V W X Y Z # 

Sir Track Tabs

(ver. 1) Click to play this song!
Liam Lynch
 Rating:
4/5 (4 votes)

 Sir Track lessons Tabs too difficult? Try these video lessons and learn fast
 
                Hey this song of Liam Lynch is easy to play. Have fun!!

E|------------------------------------------------------|
B|------------------------------------------------------|
G|------------------------------------------------------|
D|--7-7-6-2--2-5-2----7-7-6-2--2-5-2----7-7-6-2-P.M.----| 2 x
A|--5-5-4-2--2-3-2----5-5-4-2--2-3-2----5-5-6-2-P.M.----|
E|--5-5-4-0--0-3-0----5-5-4-0--0-3-0----5-5-4-0-P.M.----|

E|------------------------------------------------------|
B|------------------------------------------------------|
G|------------------------------------------------------|
D|--7-7-6-2--2-5-2----7-7-6-2-2--2-5-2----7-7-6-8---8-7-| 
A|--5-5-6-2--2-3-2----5-5-4-2-2--2-3-2----5-5-4-8---8-5-|
E|--5-5-4-0--0-3-0----5-5-4-0-0--0-3-0----5-5-4-6---6-5-|

E|------------------------------------------------------|
B|------------------------------------------------------|
G|------------------------------------------------------|
D|--7-7-6-2--2-5-2----7-7-6-2-2--2-5-2----7-7-6-2-P.M.--| 2x
A|--5-5-4-2--2-3-2----5-5-4-2-2--2-3-2----5-5-4-2-P.M.--|
E|--5-5-4-0--0-3-0----5-5-4-0-0--0-3-0----5-5-4-0-P.M.--|

E|------------------------------------------------------|
B|------------------------------------------------------|
G|------------------------------------------------------|
D|--7-7-6-2-2--2-5-2----7-7-6-2--2-5-2----7-7-6-8---8-7-| 
A|--5-5-4-2-2--2-3-2----5-5-4-2--2-3-2----5-5-4-8---8-5-|
E|--5-5-4-0-0--0-3-0----5-5-4-0--0-3-0----5-5-4-6---6-5-|

E|------------------------------------------------------|
B|------------------------------------------------------|
G|------------------------------------------------------|
D|--7-7-6-2--2-5-2----7-7-6-2-2--2-5-2----7-7-6-2-P.M.--| 
A|--5-5-4-2--2-3-2----5-7-4-2-2--2-3-2----5-5-6-2-P.M.--|
E|--5-5-4-0--0-3-0----5-5-4-0-0--0-3-0----5-5-4-0-P.M.--|

E|------------------------------------------------------|
B|------------------------------------------------------|
G|------------------------------------------------------|
D|--7-7-6-2--2-5-2----7-7-6-2--2-5-2----7-7-6-2-P.M.----| 
A|--5-5-4-2--2-3-2----5-5-4-2--2-3-2----5-5-4-2-P.M.----|
E|--5-5-4-0--0-3-0----5-5-4-0--0-3-0----5-5-4-0-P.M.----|

E|------------------------------------------------------|
B|------------------------------------------------------|
G|------------------------------------------------------|
D|--7-7-6-2-2--2-5-2----7-7-6-2--2-5-2----7-7-6-8---8-7-| 
A|--5-5-4-2-2--2-3-2----5-5-4-2--2-3-2----5-5-4-8---8-5-|
E|--5-5-4-0-0--0-3-0----5-5-4-0--0-3-0----5-5-4-6---6-5-|

E|------------------------------------------------------|
B|------------------------------------------------------|
G|------------------------------------------------------|
D|--6-2--2-5-2----7-7-6-2-2--2-5-2----7-7-6-2--2-5-2----| 
A|--4-2--2-3-2----5-5-4-2-2--2-3-2----5-5-4-2--2-5-2----|
E|--4-0--0-3-0----5-5-4-0-0--0-3-0----5-5-4-0--0-3-0----|

E|------------------------------------------------------|
B|------------------------------------------------------|
G|----------------2-P.M.--------------------------------|
D|--7-7-6-2-------2-P.M.--------------------------------| 
A|--5-7-4-2-------2-P.M.--------------------------------|
E|--5-5-4-0-------0-P.M.--------------------------------
            
Submit corrections


        Sir Track lessons Hard to play? Try these video lessons and learn fast Sir Track lessons
        
↑ Back to top | Tablatures and chords for acoustic guitar and electric guitar, ukulele, drums are parodies/interpretations of the original songs. You may use it for private study, scholarship, research or language learning purposes only