Home » L » Level 42 »

Level 42 - Dune Tune Tabs

Artists:  A B C D E F G H I J K L M N O P Q R S T U V W X Y Z # 

Dune Tune Tabs

(ver. 1) Click to play this song!
Level 42
Standard tuning

Part 1

e|-------------14-16-16-17-16-14-14-14s12-12-10-9-7-5-4-5--------------------|
B|----10-12-14--------------------------------------------5------------------|
G|9-11-----------------------------------------------------------------------|
D|----------------------------------------------------------7----------------|
A|---------------------------------------------------------------------------|
E|---------------------------------------------------------------------------|

e|--------------14-16-16-17-16-14 14-17-15-13-12-12-14-12-7h8p7h8p7h8h7------|
B|-----10-12-14--------------------------------------------------------------|
G|9-11-----------------------------------------------------------------------|
D|---------------------------------------------------------------------------|
A|---------------------------------------------------------------------------|
E|---------------------------------------------------------------------------|

Part 2

e|------12-14-16-17-14----14-14-12-12-16-12-10-------------------------------|
B|12-14----------------15----------------------------------------------------|
G|---------------------------------------------------------------------------|
D|---------------------------------------------------------------------------|
A|---------------------------------------------------------------------------|
E|---------------------------------------------------------------------------|

e|------------------17s15----------------------------------------------------|
B|---14-14-15-14-13-------14-12----------------------------------------------|
G|14----------------------------14----13-11----------------------------------|
D|---------------------------------14-------14-------------------------------|
A|---------------------------------------------------------------------------|
E|---------------------------------------------------------------------------|

part 3

1 chord is repeatly playing
  
     E7b10
   
e|----0-----------------------------------------------------------------------|
B|----8-----------------------------------------------------------------------|
G|----7-----------------------------------------------------------------------|
D|----6-----------------------------------------------------------------------|
A|----7-----------------------------------------------------------------------|
E|----0-----------------------------------------------------------------------|
            
Submit corrections

↑ Back to top | Tablatures and chords for acoustic guitar and electric guitar, ukulele, drums are parodies/interpretations of the original songs. You may use it for private study, scholarship, research or language learning purposes only