» » »

Level 42 - Heathrow Bass

Artists:  A B C D E F G H I J K L M N O P Q R S T U V W X Y Z # 

Heathrow Bass

(ver. 1) Click to play this song!
Level 42
 Rating:
4/5 (4 votes)
    Heathrow lessons Tabs too difficult? Try these video lessons and learn fast
                Level 42
Level 42 1981


With triplet/shuffle feel
All slapped.

G|---------------------|-----------------------|
D|---------------------|-----------------3/5-3-|
A|---------------------|-----------------------|
E|-x-x-x-1-1-x-x-x-1-1-|-x-x-x-1-1-x-x-x-------|

G|---------------------|-----------------------|
D|---------------------|---------------------3-|
A|---------------------|-----------------3h5---|
E|-x-x-x-1-1-x-x-x-1-1-|-x-x-x-1-1-x-x-x-------|

G|---------------------|-----------------------|
D|---------------------|-----------------3/5-3-|
A|---------------------|-----------------------|
E|-x-x-x-1-1-x-x-x-1-1-|-x-x-x-1-1-x-x-x-------|

G|---------------------|-----------------------|
D|---------------------|---------------------3-|
A|---------------------|-----------------3h5---|
E|-x-x-x-1-1-x-x-x-1-1-|-x-x-x-1-1-x-x-x-------|


There is more but it's easy to work out.
            
Submit corrections

↑ Back to top | Tablatures and chords for acoustic guitar and electric guitar, ukulele, drums are parodies/interpretations of the original songs. You may use it for private study, scholarship, research or language learning purposes only