» » »

Level 42 - Almost There Bass

Artists:  A B C D E F G H I J K L M N O P Q R S T U V W X Y Z # 

Almost There Bass

(ver. 1) Click to play this song!
Level 42
 Rating:
4/5 (4 votes)
                Chorus


G|-------7--x----------7--x-----|-------7--x--------------------|
D|------------------------------|-------------------------------|
A|------------57------------57--|------------57-----------------|
E|--0--x----------0--x----------|--0--x----------00-2-3-~~~~~~--|  



G|-------7--x----------7--x-----|-------7--x-----------7----p79-|
D|------------------------------|-------------------------79----|
A|------------57------------57--|------------57--4-5-5----------|
E|--0--x----------0--x----------|--0--x-------------------------|  





p = snap
~ = swing



By -BenniBinder-
            
Submit corrections

↑ Back to top | Tablatures and chords for acoustic guitar and electric guitar, ukulele, drums are parodies/interpretations of the original songs. You may use it for private study, scholarship, research or language learning purposes only