Home » L » Letters To Cleo »

Letters To Cleo - Cruel To Be Kind Bass

Artists:  A B C D E F G H I J K L M N O P Q R S T U V W X Y Z # 

Cruel To Be Kind Bass
Version #1
Letters To Cleo


Copy URL

Intro
G:----------------------------------|  |----------|
D:----------------------------------|  |----------|
A:-7-7-70706-6-60604-4-40402-2-2020-|x2|-2-2-2020-|x1
E:----------------------------------|  |----------|

Verse
G:------------------------------------------------------------------|
D:------------------------------------------------------------------|
A:-7-7-7-7-6-6-6-6-----------------7-7-7-7-6-6-6-6------------------|x1
E:-----------------5-5-5-5-7-7-7-7-----------------5-5-4-4-2-2-2-2--|

Pre Chorus
G:---------------------------------|
D:---------------------------------|
A:---------------------------------|x1
E:-5-5-5-5-4-4-4-4-5-5-5-5-757-757-|

Chorus
G:------------------|  |--------------------------|
D:------------------|  |--------------------------|
A:---------6-467-77-|x3|--------------------------|x1
E:-5-557-77---------|  |-555555555555555555555555-|

Pre Verse
G:----------------------------------| 
D:----------------------------------| 
A:-7-7-70706-6-60604-4-40402-2-2020-|x1
E:----------------------------------|  

Repeat:
Verse
Pre Chorus
Chorus

Bridge
G:----------------------------------|
D:----------------------------------|
A:-7~~~~~~~--------4~~~~~~~---------|x1
E:----------------------------------|

Repeat:
Chorus

Verse Variation
G:------------------------------------------------------------------|
D:------------------------------------------------------------------|
A:-7~~~~~~~---------------------------------------------------------|x1
E:-------------------------------------------------5-5-4-4-2-2-2-2--|

Repeat:
Pre Chorus
Chorus

Chorus
Chorus
G:------------------|  |------------------------------------------|
D:------------------|  |------------------------------------------|
A:---------6-467-77-|x3|-------------------------7~~~-------------|x1
E:-5-557-77---------|  |-555555555555555555555555-----------------|
            
Submit corrections

↑ Back to top | Tablatures and chords for acoustic guitar and electric guitar, ukulele, drums are parodies/interpretations of the original songs. You may use it for private study, scholarship, research or language learning purposes only