» » »

Letlive - Renegade 86 Tabs

Artists:  A B C D E F G H I J K L M N O P Q R S T U V W X Y Z # 

Renegade 86 Tabs

(ver. 1) Click to play this song!
Letlive
 Rating:
3.3/5 (27 votes)

 Renegade 86  lessons Tabs too difficult? Try these video lessons and learn fast
 
                Tuning: Drop C#

Intro:
e|------------------------------|  Bend the 14 and 12 slowly together and let
B|------------------------------|  it ring out. I like to strum it rapidly
G|----------5-----14b~----------|  as I bend it, so try that out and see what
D|----------5------x------------|  works best.
A|----------3-----12b~----------|
E|---0h2h3-----0---0~-----------|

Then:
e|-------------------------------------------|
B|-------------------------------------------|
G|----------5--------------------------------|
D|----------5------------------2-3-0-3-3-3---|
A|----------3------------------2-3-0-3-3-3---|
E|---0h2h3-----0---2p0-2h3p0---2-3-0-3-3-3---|

Main Riff: (Starts where Jason comes in) x4
e|------------------------------------------|----------|
B|------------------------------------------|----------|
G|----------5------------------------5------|----------| 1st+3rd
D|----------5------------------------5------|---2--3---| Endings
A|----------3------------------------3------|---2--3---|
E|---0h2h3-----0---2p0-2h3p0--0h2h3-----0---|---2--3---|

e|--------------|          Mute those zeros 
B|--------------|          immediately after playing
G|--------------| 2nd      them. Listen to the song
D|--------------| Ending   and you'll hear what I 
A|--------------|          mean.
E|---0x-0x-0x---|

e|-----------------|
B|-----------------|
G|-----------------| 4th
D|---5-5-5-5-5-5---| Ending
A|---5-5-5-5-5-5---|
E|---3-5-0-5-5-5---|

Verse: x2
e|---------------------------------------------------------|
B|---------------------------------------------------------|
G|------------------------------------------------7--------|
D|---0-------------------------0x-0x-0~-----------7----7---|
A|---0-------------------------0x-0x-0~---------0----0-5---|
E|---0----------0-5/7----------0x-0x-0~---------0----0-5---|
                                                *    *
Pre Chorus:
e|------------------------------------------------------------x-x-x-x---|  The 3s and 2s in that 
B|------------------------------------3-3-3-3-3-3-3-3-3-3-3-3-x-x-x-x---|  second chord are optional,
G|------------------------------------2-2-2-2-2-2-2-2-2-2-2-2-x-x-x-x---|  I just think it makes
D|---7-7-7-7-7-7-7-7-7-7-7-7-7-7-7-7--0-0-0-0-0-0-0-0-0-0-0-0-x-x-x-x---|  it sound better.
A|---5-5-5-5-5-5-5-5-5-5-5-5-5-5-5-5--0-0-0-0-0-0-0-0-0-0-0-0-x-x-x-x---|
E|---5-5-5-5-5-5-5-5-5-5-5-5-5-5-5-5--0-0-0-0-0-0-0-0-0-0-0-0-x-x-x-x---|

Chorus: x2
e|---------------------------------------------|
B|---------------------------------------------|
G|---------------------------------5/7777777---|
D|------------5------------5-------x-xxxxxxx---|
A|------------3------------3-------3/5555555---|
E|---0---5b---3---0---5b---3---0---------------|
                                              End on:
e|-------------------------------------------|--------|
B|-------------------------------------------|--------|
G|-------3---3-------3---3-------3/5555555---|--------|
D|-------3---3-------3---3-------x-xxxxxxx---|--------|
A|-------1---1-------1---1-------1/3333333---|--------|
E|---0-----------0-----------0---------------|--0-0---|

Back to main riff: x4
Same as before, except on the 3rd and 4th time play this instead:
e|-----------------------------------------------|
B|-----------------------------------------------|
G|---5--------------------------5----------------| 3rd
D|---5---3----------------------5--3--0----2-3---| time
A|---3-3------------------------3--3--0----2-3---|
E|-----3---0---10p0-10h121212------3--0----2-3---|

e|---------------------------------------|
B|---------------------------------------|
G|---5-----------------------------------| 4th
D|---5--3--0---------------5-5-5-5-5-5---| time
A|---3--3--0---------------5-5-5-5-5-5---|
E|------3--0---2p0-2h3p0---3-5-0-5-5-5---|

Verse 2: 
Same as the first one, except played 4 times with the 3rd and 4th times slightly altered like this:
e|----------------------------------------------------------|
B|----------------------------------------------------------|
G|-------------------------------------------------7--------| 3rd
D|-------------------------------------------------7----7---| time
A|-----------------------------------------------0----0-5---|
E|---0--------------------------0x-0x-0x---------0----0-5---|
                                                 *    *
e|----------------------------------------------------------|
B|----------------------------------------------------------|
G|-------------------------------------------------7--------| 4th
D|-------------------------------------------------7----7---| time
A|-----------------------------------------------0----0-5---|
E|---0--------------------------0x-0x-0~---------0----0-5---|
                                                 *    *
Pre chorus:
Same as before, but throw this in before you start the chorus:
e|------------------------------------------------------|
B|---------------------------------6---6---6---6---6----|
G|---------------------------------9b(10)(10)(10)(10)---|
D|------------5------------5----------------------------|
A|------------3------------3----------------------------|
E|---0---5b---3---0---5b---3---0------------------------|

Chorus 2: x4
Once again, same as before, but played four times with this lead thrown in the 2nd time:
e|-----------------6------6---6-6---|
B|--------------6-----6---6---6-6---|
G|---3-------9------------9---9-9---| I'm not 100% sure on this part, but it sounds
D|---3---/8---------------8---8-8---| pretty good when I play it with the song.
A|---1------------------------------|
E|----------------------------------|

Bridge: 
I've separated this part into both guitars for accuracy and because it's really 
the only part of the song where both guitars play something separate.

Guitar 1: x2
e|---------------------------------------------------------------------|
B|---------------------------------------------------------------------|
G|---7-7-7-7-7-7-7-7-7-7-7-7-7-7-7-7-7-7-7-7-7-7-7-7-7-7-7-7-7-7-7-7---|
D|---x-x-x-x-x-x-x-x-6-6-6-6-6-6-6-6-x-x-x-x-x-x-x-x-6-6-6-6-6-6-6-6---|
A|---5-5-5-5-5-5-5-5-5-5-5-5-5-5-5-5-5-5-5-5-5-5-5-5-5-5-5-5-5-5-5-5---|
E|---------------------------------------------------------------------|
Guitar 2: x2
e|---------------------------------------------------------------------|
B|---------------------------------------------------------------------|
G|-------------------7-7-7-7-7-7-7-7-----------------7-7-7-7-7-7-7-7---|
D|-------------------6-6-6-6-6-6-6-6-----------------6-6-6-6-6-6-6-6---|
A|-------------------5-5-5-5-5-5-5-5-----------------5-5-5-5-5-5-5-5---|
E|---------------------------------------------------------------------|

Guitar 1:
e|--------------------------------------------------|
B|--------------------------------------------------|
G|---7-----7-----7-----7-----7-----7-----7-7-7777---|
D|---6-----6-----6-----6-----6-----6-----6-6-6666---|
A|---5-----5-----5-----5-----5-----5-----5-5-5555---|
E|--------------------------------------------------|
Guitar 2:
e|--------------------------------------------------|
B|--------------------------------------------------|
G|---7--------7--------7--------7--------7-7-7777---|
D|---6--------6--------6--------6--------6-6-6666---|
A|---5--------5--------5--------5--------5-5-5555---|
E|--------------------------------------------------|

Back to both guitars:
e|------------------------------------------------------------------|
B|------------------------------------------------------------------|
G|---7------------------------------7-------------------7777---77---|
D|---6------------------3/5\3-------6-------------------6666---66---|
A|---5-----------3------------5-----5-----------3-------5555---55---|
E|-------0---3h5------------------------0---3h5-----0-0------0------|

e|---------------------------------------------------------------|
B|---------------------------------------------------------------|
G|---7-----------------------------7---------------7~-7~-7~-7~---|
D|---6-----------------3/5\3-------6---------------6~-6~-6~-6~---|
A|---5-----------3-----------5-----5-----------3---5~-5~-5~-5~---|
E|-------0---3h5-----------------------0---3h5-------------------|

e|--------------------------------------------------------------------|
B|--------------------------------------------------------------------|
G|---7-----------------------------7-------------------7777-----------|
D|---6-----------------3/5\3-------6-------------------6666---5---3---|
A|---5-----------3-----------5-----5-----------3-------5555-----------|
E|-------0---3h5-----------------------0---3h5-----0-0------5---3-----|

e|--------------------------------------------------------------------------|
B|--------------------------------------------------------------------------|
G|---7-----------------------------7---------------7~-7~-7~-7~-7~-7~-7~-7---|
D|---6-----------------3/5\3-------6---------------6~-6~-6~-6~-6~-6~-6~-6---|
A|---5-----------3-----------5-----5-----------3---5~-5~-5~-5~-5~-5~-5~-5---|
E|-------0---3h5-----------------------0---3h5------------------------------|

One guitar plays this before the last chorus:
e|----------------------------------|
B|----------------------------------|
G|---7--7--7--7--7--7--7--7--7--7---|
D|---6--6--6--6--6--6--6--6--6--6---|
A|---5--5--5--5--5--5--5--5--5--5---|
E|----------------------------------|

Last chorus:
Same as Chorus 2, except the lead part is on the 2nd and 4th time instead of just the 2nd.

Song ends on this:
e|-------------------------------------------------|
B|------------------------------------(16)---------|
G|------------------------------------(19b20)------|
D|-----------------------------0x-0x-0~------------|
A|-----------------------------0x-0x-0~------------|
E|---0----------0-5/7----------0x-0x-0~------------|            
Submit corrections


        Renegade 86  lessons Hard to play? Try these video lessons and learn fast Renegade 86  lessons
        
↑ Back to top | Tablatures and chords for acoustic guitar and electric guitar, ukulele, drums are parodies/interpretations of the original songs. You may use it for private study, scholarship, research or language learning purposes only