Home » L » Letlive »

Letlive - Pheromone Cvlt Chords

Artists:  A B C D E F G H I J K L M N O P Q R S T U V W X Y Z # 

Pheromone Cvlt Chords

(ver. 1) Click to play this song!
Letlive
 Rating:
3.8/5 (26 votes)
                   Bm   A    G    Em
e|-2----0----0----0----|
B|-3----2----3----0----|
G|-4----2----0----0----|
D|-4----2----0----2----|
A|-2----0----2----2----|
E|-x----0----3----0----|

Chorus(optional way to play)                            Bridge           
e|---7-7-7777----5-5-5555----3-3-3333----0-0-0000--|   |----33333333--00000000--|--3333--5555--5555--|
B|---7-7-7777----5-5-5555----3-3-3333----0-0-0000--|   |----33333333--00000000--|--3333--5555--5555--|
G|---7-7-7777----6-6-6666----4-4-4444----0-0-0000--|   |----44444444--44444444--|--4444--6666--6666--|
D|---9-9-9999----7-7-7777----5-5-5555----2-2-2222--|   |----55555555--00000000--|--5555--7777--8888--|
A|---9-9-9999----7-7-7777----5-5-5555----2-2-2222--|   |----55555555--22222222--|--5555--7777--8888--|
E|---7-7-7777----5-5-5555----3-3-3333----0-0-0000--|   |----33333333--00000000--|--3333--5555--5555--|

Bm           A     G            Em
Hey, mom and dad, you would be happy for me
Bm       A   G            Em
I found God, but she was nothing like she seemed
Bm         A      G                Em
In those books, on that screen you pushed in front of me
Bm     A    G             Em
I now know that I would rather be dead


Bm               A
The grass is cut
                   G
The snakes will show
             Em
I see them all
They're all over


Bm           A    G               Em
To all the girls that would be perfect for me
Bm         A  G           Em
Break my jaw so we can't talk about me
Bm        A      G               Em
Since my mouth is bigger than my heart could ever be
Bm         A     G                Em
There's no shame in screaming at deaf weddings

Bm               A
The grass is cut
                   G
The snakes will show
             Em
I see them all
They're all over

Bridge*
The grass is cut and now I know myself
They're all over

Bm                A     G
To all those girls
    Em
To all those boys
Bm            A             G                Em 
To all those girls that will turn all those boys into those men

Bm        A      G     Em
To all the girls that want to save me
To all the boys - you're just like me
To all the girls that f**king hate me
All the boys will grow up to be those broken men            
Submit corrections

↑ Back to top | Tablatures and chords for acoustic guitar and electric guitar, ukulele, drums are parodies/interpretations of the original songs. You may use it for private study, scholarship, research or language learning purposes only