Home » L » Les Miserables »

Les Miserables - Castle On A Cloud Tabs

Artists:  A B C D E F G H I J K L M N O P Q R S T U V W X Y Z # 

Castle On A Cloud Tabs

(ver. 1) Click to play this song!
Les Miserables
    Em              C       B         Em
    1 e + a 2 e + a 3 e + a 4 e + a   1 e + a 2 e + a 
E||-3---0---3---0---0---------------|-0-------0-------|
B||---0---0---0---0-----1---4-------|---0---0---0---0-|
G||-------------------0---0-----4---|-----0-------0---|
D||-2-------2-----------------4---4-|-2-------2-------|
A||-----------------3-------2-------|-----------------|
E||---------------------------------|-----------------|


   Em      B   C   Am  B      Em                        D
   1 e + a 2 e + a 3 e + a    1 e + a 2 e + a   1 e + a 2 e + a 3 e + a
| |-0---2-3-2---0---0-------|-0---------------|-0---2-3-2---0-----------|
| |-----0---0---1---1---4---|---0---0---0---0-|-----0-----3-----3---1---|
|?|---0-----------0-2---4---|-----0-------0---|---0---------2-------2---|
|?|-2-----------------------|-2-------2-------|-2-------0-------0-------|
| |---------2---3---0---2---|-----------------|-------------------------|
| |-------------------------|-----------------|-------------------------|


  G                 Am      G       B         C
  1 e + a 2 e + a   1 e + a 2 e + a 3 e + a   1 e + a 2 e + a
|---3---3---3---3-|-------------0---2---3---|-0---------------|
|-0---0---0---0---|-----0-1-0-------0---0---|-1---1---1---1---|
|-0---------------|-2-----------------------|---0---0---0---0-|
|-----------------|---2-------0-------------|-----------------|
|-----------------|-0-------2-------2-------|-3-------3-------|
|-3-------3-------|-------------------------|-----------------|


                            
                           _Em______________    _Em_____________
  Am      B7              | First ending    |  | Second ending  |
  1 e + a 2 e + a 3 e + a   1 e + a 2 e + a      1 e + a 2 e + a
|-------------------------|---------0-------| ||---------0-------|
|-----0-1-0---------------|-----0-------0---| ||-----0-------0---|
|-2-----------2---0-------|---0---0---0---0-|?||---0---0---0---0-|
|---2-------1---1-----4---|-2---------------|?||-2---------------|
|-0-------2-------2-------|-----------------| ||-----------------|
|-------------------------|-0---------------| ||-0---------------|


  C               G                 C               G
  1 e + a 2 e + a 3 e + a 4 e + a   1 e + a 2 e + a 3 e + a 4 e + a
|---------------------------------|-0---------------------0---------|
|-1---0-----------0---0-1-0-------|-----3-1-0-----1-3-------3---3---|
|-0---0-2-0-----2-0-------0---0---|---0---------0-------0---0---0---|
|---2---------2-----0-------------|-----------2-------0-------------|
|-3-------3-----------------------|-3-------3-----------------------|
|-----------------3-------3-------|-----------------3-------3-------|

  F               C                 B7
  1 e + a 2 e + a 3 e + a 4 e + a   1 e + a 2 e + a 3 e + a 4 e + a
|-1-----0---------0---------------|---------------------------------|
|-----1---3---1-3-------1---------|-0-----1-0-----1-0-1-0-1-0-------|
|---2-------2---------0---0-----2-|-----2-------2-------------------|
|-3-------3---------2-------------|---1-------1---------------------|
|-----------------3-------3-------|-2-------2-------2---2---2-------|
|---------------------------------|---------------------------------|


  Em      B   C   Am  B     Em                        D
  1 e + a 2 e + a 3 e + a   1 e + a 2 e + a   1 e + a 2 e + a 3 e + a
|-0---2-3-2---0---0-------|-0---------------|-0---2-3-2---0-----------|
|-----0---0---1---1---4---|---0---0---0---0-|-----0-----3-----3---1---|
|---0-----------0-2---4---|-----0-------0---|---0---------2-------2---|
|-2-----------------------|-2-------2-------|-2-------0-------0-------|
|---------2---3---0---2---|-----------------|-------------------------|
|-------------------------|-----------------|-------------------------|


  G                 Am      G       B         C
  1 e + a 2 e + a   1 e + a 2 e + a 3 e + a   1 e + a 2 e + a
|---3---3---3---3-|-------------0---2---3---|-0---------------|
|-0---0---0---0---|-----0-1-0-------0---0---|-1---1---1---1---|
|-0---------------|-2-----------------------|---0---0---0---0-|
|-----------------|---2-------0-------------|-----------------|
|-----------------|-0-------2-------2-------|-3-------3-------|
|-3-------3-------|-------------------------|-----------------|

  Am      B7                Em
  1 e + a 2 e + a 3 e + a   1 e + a 2 e + a 3 e + a 4 e + a 
|-------------------------|---------------------------------|
|-----0-1-0---------------|---------------------------------|
|-2-----------2---0-------|---------------------------------|
|---2-------1---1-----4---|-2-------------------------------|
|-0-------2-------2-------|---------------------------------|
|-------------------------|-0-------------------------------|            
Submit corrections

↑ Back to top | Tablatures and chords for acoustic guitar and electric guitar, ukulele, drums are parodies/interpretations of the original songs. You may use it for private study, scholarship, research or language learning purposes only