Home » L » Les Miserables »

Les Miserables - Empty Chairs At Empty Tables Tabs

Artists:  A B C D E F G H I J K L M N O P Q R S T U V W X Y Z # 

Empty Chairs At Empty Tables Tabs

(ver. 1) Click to play this song!
Les Miserables
(Intro)

|--5-5-7-5-3-1-1-0----5-5-7-5-3-1-0-3-----3-3-5-3-1---------0-1-0-0----------|
|---------------------------------------------------5-5-3-----------1-3-5----|
|----------------------------------------------------------------------------|
|----------------------------------------------------------------------------|
|----------------------------------------------------------------------------|
|----------------------------------------------------------------------------|




|--5-5-7-5-3-1-1-0----5-5-7-5-3-1-0-3-----3-3-5-3-1---------0-1-0-0----------|
|---------------------------------------------------5-5-3--------------------|
|-------------------------------------------------------------------4-5/2----|
|----------------------------------------------------------------------------|
|----------------------------------------------------------------------------|
|----------------------------------------------------------------------------|
            
Submit corrections

↑ Back to top | Tablatures and chords for acoustic guitar and electric guitar, ukulele, drums are parodies/interpretations of the original songs. You may use it for private study, scholarship, research or language learning purposes only