» » »

Les Cowboys Fringants - Mon Chum Rmi Tabs

Artists:  A B C D E F G H I J K L M N O P Q R S T U V W X Y Z # 

Mon Chum Rmi Tabs

(ver. 1) Click to play this song!
Les Cowboys Fringants
 Rating:
4/5 (4 votes)

 Mon Chum Rmi lessons Tabs too difficult? Try these video lessons and learn fast
 
                Je l'ai ecrit en francais, sa metonnerais ki aille des angla ki vienne icite..:-S
pi scuz j'ai faite une coupe d'erreur dans l'ortographe...


 *** note:   Standard tunning...(ya un capo sa deuxieme fret!!!)

                                      ______
pi ta joue ak tes doi

les accords utilisés sont   C,Am,Em,G,F ;


C               x 3 2 0 1 0
Am              x 0 2 2 1 0
Em              0 2 2 0 0 0
G               3 2 0 0 3 3
F               1 3 3 2 1 1


intro/verse:

    C            Am       Em         G

e--------0---|-------0---|------0--|------3---|
B--1------1--|-0h1----1--|-0-----0-|-3-----3--|
G----0-----0-|----2----2-|---0-----|---0------|
D------2-----|-----2-----|----2----|----0-----|
A--3---------|-0---------|---------|----------|
E------------|-----------|-0-------|-3--------|
                               



avant le refrain:


  en plus j'aurais pu personne....

      F          C         G

e|------1--|------0---|------3--|------0---|
B|-1-----1-|-1-----1--|-3-----3-|-1-----1--|
G|---2-----|---0----0-|---0-----|---0----0-|
D|----3----|----2-----|----0----|----2-----|     tu repete sa deux fois 
A|---------|-3--------|---------|-3--------|
E|-1-------|----------|-3-------|----------|
                               



refrein: (C'est que chose de meme....si t'ecoute la chanson tu va surment le trouver)


   Heille Rémi, fais po d' conerie...

   C              G         Am

e--------0---|------3---|------------------|
B--1------1--|-3-----3--|-0h1---1-0-0h1----|
G----0-----0-|---0------|----2---------2---|
D------2-----|----0-----|-----2---------2--|
A--3---------|----------|-0----------------|
E------------|-3--------|------------------|
                               
fin du refrain:

   C              G         

e--------0---|------3---|
B--1------1--|-3-----3--|
G----0-----0-|---0------|
D------2-----|----0-----|
A--3---------|----------|
E------------|-3--------|



apres sa bin tu recommence.
Tu fini sur C

taber par Jon.
            
Submit corrections


        Mon Chum Rmi lessons Hard to play? Try these video lessons and learn fast Mon Chum Rmi lessons
        
↑ Back to top | Tablatures and chords for acoustic guitar and electric guitar, ukulele, drums are parodies/interpretations of the original songs. You may use it for private study, scholarship, research or language learning purposes only