» » »

Leroy Sanchez - Little Dancer Tabs

Artists:  A B C D E F G H I J K L M N O P Q R S T U V W X Y Z # 

Little Dancer Tabs

(ver. 1) Click to play this song!
Leroy Sanchez
 Rating:
4/5 (4 votes)

 Little Dancer  lessons Tabs too difficult? Try these video lessons and learn fast
 
                
//  G Major                             G Major 7

e|-----------------------------------------------------------------------------------|
B|--------------0--------------------0-----------0-----------------------------------|
G|--------2-----------2-----------2-----------2--------------------------------------|
D|-----0-----0-----0-----0-----0-----------0-----------------------------------------|
A|-----------------------------------------------------------------------------------|
E|--3-----------------------3-----------2--------------------------------------------|

e|-----------------------------------------------------------------------------------|
B|--------------0--------------------0-----------0-----------------------------------|
G|--------2-----------2-----------2-----------2--------------------------------------|
D|-----0-----0-----0-----0-----0-----------0-----------------------------------------|
A|-----------------------------------------------------------------------------------|
E|--3-----------------------3-----------2--------------------------------------------|

//  E minor                 C Major

e|-------------------------------------------------------------------------------------|
B|--------------0-----------------------1----------------------------------------------|
G|--------0-----------0-----------0-----------0----------------------------------------|
D|-----2-----2-----2-----2-----2-----2-----2-----2-------------------------------------|
A|--------------------------3----------------------------------------------------------|
E|--0----------------------------------------------------------------------------------|

//  G Major                 D Major

e|-------------------------------------------------------------------------------------|
B|--------------0-----------------------3----------------------------------------------|
G|--------2-----------2-----------2-----------2----------------------------------------|
D|-----0-----0-----0-----0-----0-----0-----0-----0-------------------------------------|
A|-------------------------------------------------------------------------------------|
E|--3-----------------------2----------------------------------------------------------|


Main Guitar - Beginner


//  G Major                             G Major 7

e|-----------------------------------------------------------------------------------|
B|--------------0--------------------0-----------0-----------------------------------|
G|--------0-----------0-----------0-----------0--------------------------------------|
D|-----0-----0-----0-----0-----0-----------0-----------------------------------------|
A|-----------------------------------------------------------------------------------|
E|--3-----------------------3-----------2--------------------------------------------|


Accompanying Guitar - Beginner


e|--3-----------------------5----------------------------------------------------|
B|-------------------------------------------------------------------------------|
G|-------------------------------------------------------------------------------|
D|-------------------------------------------------------------------------------|
A|-------------------------------------------------------------------------------|
E|-------------------------------------------------------------------------------|

e|--7-----------------------5--------10--------------------------------------------|
B|---------------------------------------------------------------------------------|
G|---------------------------------------------------------------------------------|
D|---------------------------------------------------------------------------------|
A|---------------------------------------------------------------------------------|
E|---------------------------------------------------------------------------------|

e|--7-----------------------5--------7--------------------------------------------|
B|--------------------------------------------------------------------------------|
G|--------------------------------------------------------------------------------|
D|--------------------------------------------------------------------------------|
A|--------------------------------------------------------------------------------|
E|--------------------------------------------------------------------------------|

e|--3-----------------------5--------3--------------------------------------------|
B|--------------------------------------------------------------------------------|
G|--------------------------------------------------------------------------------|
D|--------------------------------------------------------------------------------|
A|--------------------------------------------------------------------------------|
E|--------------------------------------------------------------------------------|


Combined - Intermediate


//  G Major                             G Major 7

e|-----------------------------------------------------------------------------------|
B|--------------0--------------------0-----------0-----------------------------------|
G|--0-----0-----------0-----2-----2-----------2--------------------------------------|
D|-----0-----0-----0-----0-----0-----------0-----------------------------------------|
A|-----------------------------------------------------------------------------------|
E|--3-----------------------3-----------2--------------------------------------------|

e|-----------------------------------------------------------------------------------|
B|--0-----------0--------------------0--3--------3-----------------------------------|
G|--------2-----------2-----2-----2-----------2--------------------------------------|
D|-----0-----0-----0-----0-----0-----------0-----------------------------------------|
A|-----------------------------------------------------------------------------------|
E|--3-----------------------3-----------2--------------------------------------------|

//  E minor                 C Major

e|-------------------------------------------------------------------------------------|
B|--0-----------0-----------------------1----------------------------------------------|
G|--------0-----------0-----2-----0-----------0----------------------------------------|
D|-----2-----2-----2-----2-----2-----2-----2-----2-------------------------------------|
A|--------------------------3----------------------------------------------------------|
E|--0----------------------------------------------------------------------------------|

//  G Major                 D Major

e|-------------------------------------------------------------------------------------|
B|--0-----------0-----------------------3----------------------------------------------|
G|--------0-----------0-----2-----2-----0-----0----------------------------------------|
D|-----0-----0-----0-----0-----0-----0-----0-----0-------------------------------------|
A|-------------------------------------------------------------------------------------|
E|--3-----------------------2----------------------------------------------------------|
            
Submit corrections


        Little Dancer  lessons Hard to play? Try these video lessons and learn fast Little Dancer  lessons
        
↑ Back to top | Tablatures and chords for acoustic guitar and electric guitar, ukulele, drums are parodies/interpretations of the original songs. You may use it for private study, scholarship, research or language learning purposes only