» » »

Leonard Cohen - Suzanne Tabs

Artists:  A B C D E F G H I J K L M N O P Q R S T U V W X Y Z # 

Suzanne Tabs

(ver. 3) Click to play this song!
Leonard Cohen
 Rating:
2.6/5 (27 votes)

 Suzanne lessons Tabs too difficult? Try these video lessons and learn fast
 
                 Intro
  Q=132
  E
 6/4
  Gtr I (Ac. Nylon Str. Gtr.)
  E E E E +E  E E E E E E E   E E E E +E  E E E E E E E
|---------------------------|---------------------------|
|-0-------------------------|-0-------------------------|
|-----1---------1---2---1---|-----1---------1---2---1---|
|---2---2-(2)-2---2---2---2-|---2---2-(2)-2---2---2---2-|
|---------------2---2---2---|---------------2---2---2---|
|-0--------0----------------|-0--------0----------------|
  H        Q    Q   Q   Q     H        Q    Q   Q   Q


  E E E E +E  E E E E E E E
|----------------------------||
|-0--------------------------||
|-----1---------1---2---1----||
|---2---2-(2)-2---2---2---2--||
|---------------2---2---2----||
|-0--------0-----------------||
  H        Q    Q   Q   Q


                       1st - 3rd Verses
                        E
 4/4
  E E E E +E  E E E     E E E E +E  E E E   E E E E +E  E E E
|-------------------||--------------------|-------------------|
|-0-----------------||o-0-----------------|-------------------|
|-----1---------1---||------1---------1---|-2---1---------1---|
|---2---2-(2)-2---2-||----2---2-(2)-2---2-|---2---2-(2)-2---2-|
|-------------------||o-------------------|-------------------|
|-0--------0--------||--0--------0--------|-0--------0--------|
  H        H            H        H          H        H


  E E E E +E  E E E   E E E E +E  E E E
|-------------------|-------------------|
|-0-----------------|-------------------|
|-----1---------1---|-2---1---------1---|
|---2---2-(2)-2---2-|---2---2-(2)-2---2-|
|-------------------|-------------------|
|-0--------0--------|-0--------0--------|
  H        H          H        H


  F#m
  E E E E +E  E E E   E E E E +E  E E E
|-------------------|--------------------|
|-2-----------------|--------------------|
|-----2---------2---|-4---2---------2----|
|---4---4-(4)-4---4-|---4---4-(4)-4---4--|
|-------------------|--------------------|
|-2--------2--------|-2--------2---------|
  H        H          H        H


  E E E E +E  E E E   E E E E +E  E E E
|-------------------|-------------------|
|-2-----------------|-------------------|
|-----2---------2---|-4---2---------2---|
|---4---4-(4)-4---4-|---4---4-(4)-4---4-|
|-------------------|-------------------|
|-2--------2--------|-2--------2--------|
  H        H          H        H


  E
  E E E E +E  E E E   E E E E +E  E E E
|-------------------|--------------------|
|-0-----------------|--------------------|
|-----1---------1---|-2---1---------1----|
|---2---2-(2)-2---2-|---2---2-(2)-2---2--|
|-------------------|--------------------|
|-0--------0--------|-0--------0---------|
  H        H          H        H


  E E E E +E  E E E   E E E E +E  E E E
|-------------------|-------------------|
|-0-----------------|-------------------|
|-----1---------1---|-2---1---------1---|
|---2---2-(2)-2---2-|---2---2-(2)-2---2-|
|-------------------|-------------------|
|-0--------0--------|-0--------0--------|
  H        H          H        H


  G#m
  E E E E +E  E E E   E E E E +E  E E E
|-------------------|--------------------|
|-4-----------------|--------------------|
|-----4---------4---|-6---4---------4----|
|---6---6-(6)-6---6-|---6---6-(6)-6---6--|
|-------------------|--------------------|
|-4--------4--------|-4--------4---------|
  H        H          H        H


  A                                     E
  E E E E +E  E E E   E E E E E E E E   E E E E +E  E E E   E E E E +E  E E E
|-0-----------------|-----------------|-------------------|--------------------|
|-----2---------2---|-3---2---0---2---|-0-----------------|--------------------|
|---2---2-(2)-2---2-|---2---2---2---2-|-----1---------1---|-2---1---------1----|
|-------------------|-----------------|---2---2-(2)-2---2-|---2---2-(2)-2---2--|
|-0--------0--------|-0-------0-------|-------------------|--------------------|
|-------------------|-----------------|-0--------0--------|-0--------0---------|
  H        H          H       H         H        H          H        H


  F#m
  E E E E +E  E E E   E E E E +E  E E E
|-------------------|-------------------|
|-2-----------------|-------------------|
|-----2---------2---|-4---2---------2---|
|---4---4-(4)-4---4-|---4---4-(4)-4---4-|
|-------------------|-------------------|
|-2--------2--------|-2--------2--------|
  H        H          H        H


  E
  E E E E +E  E E E   E E E E +E  E E E
|-------------------|--------------------|
|-0-----------------|--------------------|
|-----1---------1---|-2---1---------1----|
|---2---2-(2)-2---2-|---2---2-(2)-2---2--|
|-------------------|--------------------|
|-0--------0--------|-0--------0---------|
  H        H          H        H


  F#m
  E E E E +E  E E E   E E E E +E  E E E
|-------------------|-------------------|
|-2-----------------|-------------------|
|-----2---------2---|-4---2---------2---|
|---4---4-(4)-4---4-|---4---4-(4)-4---4-|
|-------------------|-------------------|
|-2--------2--------|-2--------2--------|
  H        H          H        H


  E
                     6/4
  E E E E +E  E E E   E E E E +E  E E E E E E E
|-------------------|---------------------------||
|-0-----------------|---------------------------||
|-----1---------1---|-2---1---------1---2---1---||
|---2---2-(2)-2---2-|---2---2-(2)-2---2---2---2-||
|-------------------|---------------2---2---2---||
|-0--------0--------|-0--------0----------------||
  H        H          H        Q    Q   Q   Q


 Chorus
  E                   G#m
 4/4
  E E E E +E  E E E   E E E E +E  E E E
|-------------------|-------------------|
|-0-----------------|-4-----------------|
|-----1---------1---|-----4---------4---|
|---2---2-(2)-2---2-|---6---6-(6)-6---6-|
|-------------------|-------------------|
|-0--------0--------|-4--------4--------|
  H        H          H        H


                      A
  E E E E +E  E E E   E E E E +E  E E E
|-------------------|-0------------------|
|-------------------|-----2---------2----|
|-6---4---------4---|---2---2-(2)-2---2--|
|---6---6-(6)-6---6-|--------------------|
|-------------------|-0--------0---------|
|-4--------4--------|--------------------|
  H        H          H        H


                    E                                       F#m
  E E E E E E E E   E E E E +E  E E E   E E E E +E  E E E   E E E E +E  E E E
|-----------------|-------------------|-------------------|--------------------|
|-3---2---0---2---|-0-----------------|-------------------|-2------------------|
|---2---2---2---2-|-----1---------1---|-2---1---------1---|-----2---------2----|
|-----------------|---2---2-(2)-2---2-|---2---2-(2)-2---2-|---4---4-(4)-4---4--|
|-0-------0-------|-------------------|-------------------|--------------------|
|-----------------|-0--------0--------|-0--------0--------|-2--------2---------|
  H       H         H        H          H        H          H        H


                      Interlude
                      1.,2.
                       E
                      6/4
  E E E E +E  E E E    E E E E +E  E E E E E E E   E E E E +E  E E E E E E E
|-------------------||---------------------------|---------------------------|
|-------------------||-0-------------------------|-0-------------------------|
|-4---2---------2---||-----1---------1---2---1---|-----1---------1---2---1---|
|---4---4-(4)-4---4-||---2---2-(2)-2---2---2---2-|---2---2-(2)-2---2---2---2-|
|-------------------||---------------2---2---2---|---------------2---2---2---|
|-2--------2--------||-0--------0----------------|-0--------0----------------|
  H        H           H        Q    Q   Q   Q     H        Q    Q   Q   Q


                       Outro
                       3.
                        E
 4/4                   6/4
  E E E E +E  E E E  3x E E E E +E  E E E E E E E
|--------------------||---------------------------|
|-0-----------------o||-0-------------------------|
|-----1---------1----||-----1---------1---2---1---|
|---2---2-(2)-2---2--||---2---2-(2)-2---2---2---2-|
|-------------------o||---------------2---2---2---|
|-0--------0---------||-0--------0----------------|
  H        H            H        Q    Q   Q   Q


                             4/4
  E E E E +E  E E E E E E E   W          +W
|---------------------------|----------|--------*|
|-0-------------------------|----------|--------*|
|-----1---------1---2---2---|-1--------|-(1)----*|
|---2---2-(2)-2---2---2---2-|-2--------|-(2)----*|
|---------------2---2---2---|----------|--------*|
|-0--------0----------------|-0--------|-(0)----*|
  H        Q    Q   Q   Q            
Submit corrections


        Suzanne lessons Hard to play? Try these video lessons and learn fast Suzanne lessons
        
↑ Back to top | Tablatures and chords for acoustic guitar and electric guitar, ukulele, drums are parodies/interpretations of the original songs. You may use it for private study, scholarship, research or language learning purposes only