» » »

Leonard Bernstein - America West Side Story Tabs

Artists:  A B C D E F G H I J K L M N O P Q R S T U V W X Y Z # 

America West Side Story Tabs

(ver. 1) Click to play this song!
Leonard Bernstein
 Rating:
4.4/5 (11 votes)

 America West Side Story  lessons Tabs too difficult? Try these video lessons and learn fast
 
                e|-------5-5-5-2--------------5-5-5-7--4-----7-7-7-8--8--8--7--------0-0-0-1-1-1----5-----|
B|-2-2-2-2-2-2-3--3-----2-2-2-2-2-2-5-----5--8-8-8-8--8--8--8--8-----1-1-1-1-1-1-2--2--2--|
G|-2-2-2-2-2-2-2-----2--2-2-2-2-2-2-4--------7-7-7-9--9--9--7-----7--0-0-0-2-2-2-2--2--2--|
D|-2-2-2-2-2-2-0--------2-2-2-2-2-2----------------10-10-10----------2-2-2-3-3-3-2--2--2--|
A|-0-0-0-0-0-0----------0-0-0-0-0-0----------------------------------------------0--0--0--|
E|----------------------------------------------------------------------------------------|

e|------------------------------------------------------------2---------------------------|
B|------------------2-----------------------------------------3---------------------------|
G|------------------2---------2----------------4-2---4-2------2--------------------1------|
D|---4-2---4-2------2-----4-2---4-2/6--6-4---4-----4-----4--4-0--------------------2------|
A|-4-----4-----4--4-0---4----------------4--------------------------2-0-5-2-0------2------|
E|---------------------------------------2------------------------2-----------4--4-0------|

e|-------5-5-5-2--------------5-5-5-7--4-----7-7-7-8--8--8--7--------0-0-0-1-1-1----5-----|
B|-2-2-2-2-2-2-3--3-----2-2-2-2-2-2-5-----5--8-8-8-8--8--8--8--8-----1-1-1-1-1-1-2--2--2--|
G|-2-2-2-2-2-2-2-----2--2-2-2-2-2-2-4--------7-7-7-9--9--9--7-----7--0-0-0-2-2-2-2--2--2--|
D|-2-2-2-2-2-2-0--------2-2-2-2-2-2----------------10-10-10----------2-2-2-3-3-3-2--2--2--|
A|-0-0-0-0-0-0----------0-0-0-0-0-0----------------------------------------------0--0--0--|
E|----------------------------------------------------------------------------------------|
            
Submit corrections


        America West Side Story  lessons Hard to play? Try these video lessons and learn fast America West Side Story  lessons
        
↑ Back to top | Tablatures and chords for acoustic guitar and electric guitar, ukulele, drums are parodies/interpretations of the original songs. You may use it for private study, scholarship, research or language learning purposes only