» » »

Leftover Crack - World War Tabs

Artists:  A B C D E F G H I J K L M N O P Q R S T U V W X Y Z # 

World War Tabs

(ver. 1) Click to play this song!
Leftover Crack
 Rating:
4/5 (4 votes)

 World War lessons Tabs too difficult? Try these video lessons and learn fast
 
                "(4)

**Sorry I'm not too sure what the first part is...

**Part 2:
|-----------------------------------------------|---|
|-----------------------------------------------|---|
|-----------------------------------------------|---|you have to find beat
|-----------------------------------------------|-6-|and timing but in
|----6-5-5/6---6-5-5/6--3-3-6-5-5/6-----6-5-5/6-|-6-|total x4
|-0-0-------0-0----------------------5-5--------|-5-|
  . .       . .         . .          . .

**Verse 1:
|----------|
|----------|
|-8--5-----| x4
|-8--5--6--|
|-6--3--6--|
|-------5--|

**Chorus:
|-----------------------------------------------------------|
|-----------------------------------------------------------|
|-----------------------------------------------------------|
|-----------------------------------6-6-6-5-5-5---------5~--| x4
|------6-6-6-5-5-5-----5-5-6-6-3-3-3-----------6-6-6-8-8----|
|-0-0-0-----------7-7-7-------------------------------------|

**Part 2: x2

**Verse 2:
|--------------------------------------------------------|
|--------------------------------------------------------|
|--------------------------------------------------------|
|--------------------------------------------------------| x4
|-66-666-66-666-66-666-66-666-33-333-33-333--------------|
|------------------------------------------55-555-55-555-|

**Chorus: x4

**Starting Part Again, Which I Don't Know

**Part 2: x1 (this time play each part twice)

**Chorus: x8 (or maybe even more). And you play the last little bit
about 3 times and end on the same chord you start first verse with.
"            
Submit corrections


        World War lessons Hard to play? Try these video lessons and learn fast World War lessons
        
↑ Back to top | Tablatures and chords for acoustic guitar and electric guitar, ukulele, drums are parodies/interpretations of the original songs. You may use it for private study, scholarship, research or language learning purposes only