» » »

Leftover Crack - Nazi Whitetrash Tabs

Artists:  A B C D E F G H I J K L M N O P Q R S T U V W X Y Z # 

Nazi Whitetrash Tabs

(ver. 1) Click to play this song!
Leftover Crack
 Rating:
4/5 (4 votes)

 Nazi Whitetrash lessons Tabs too difficult? Try these video lessons and learn fast
 
                This is how I think this is played.Am pretty sure the intro is correct.

Intro
e|-----------------------------------------------------------------------------------
B|-----------------------------------------------------------------------------------
G|-----------------------------------------------------------------------------------
D|-----------------------------------------------------------------------------------
A|----2---2---2---2---2---2---2---2---4---4---4---4---7---7---7---7---4---4---4---4--
E|--0---0---0---0---0---0---0---0---0---0---0---0---0---0---0---0---0---0---0---0----

Intro Part 2
e|------------------------|
B|------------------------|
G|-------------6----------| play this 4 times
D|---2----6----6----7-----|
A|---2----6----4----7-----|
E|---0----4---------5-----|

Verse
e|----x---7----9-----7------|
B|----9---7----9-----7------|
G|----9---8----10----8------|
D|----9---9----11----9------|
A|--------------------------|
E|--------------------------|

The Second part of the verses is just the same but you use a wah-wah pedal

Chorus
e|----------------------|---------|
B|----------------------|---------|
G|--------------6-------|---------|
D|----2----6----6----7--|----2----|
A|----2----6----4----7--|----2----|
E|----0----4---------5--|----0----|
 play this 4 times

Bridge is the same as the chorus but play the 1st part 10 times.

Play part one of the intro again

Outro
e|-------------------------------|
B|-------------------------------|
G|---------4----6----4-----------|
D|----2----4----6----4----2------|
A|----2----2----4----2----2------|
E|----0-------------------0------|
            
Submit corrections


        Nazi Whitetrash lessons Hard to play? Try these video lessons and learn fast Nazi Whitetrash lessons
        
↑ Back to top | Tablatures and chords for acoustic guitar and electric guitar, ukulele, drums are parodies/interpretations of the original songs. You may use it for private study, scholarship, research or language learning purposes only