» » »

Leftover Crack - Muppet Nambla Tabs

Artists:  A B C D E F G H I J K L M N O P Q R S T U V W X Y Z # 

Muppet Nambla Tabs

(ver. 1) Click to play this song!
Leftover Crack
 Rating:
4/5 (4 votes)

 Muppet Nambla lessons Tabs too difficult? Try these video lessons and learn fast
 
                

This is the version with brody from teh distillers it will be out of key if
played along with the standard LoC version.


Part1
--------------------|--------------------------------------------------------|
--------------------|--------------------------------------------------------|
-----888-999-111111-|-9~-11-8~-999-111111-----888-999-111111-----------------|
-999-888-999-111111-|-9~-11-8~-999-111111-999-888-999-111111-9-4-9-----------|
-999-666-777--9-9-9-|-7~--9-6~-777--9-9-9-999-666-777--9-9-9-9-4-9-----------|
-777----------------|---------------------777----------------7-2-7-----------|
        X4            X1


Part2
-------------------------|---------------------------------------------------|
-------------------------|---------------------------------------------------|
-------10----11----13----|-11~-13-10~-11----13----------10----11----13-------|
-11----10-x3-11-x3-13-x3-|-11~-13-10~-11-x3-13-x3-11----10-x3-11-x3-13-x3-11-|
-11-x3--8-----9----11----|--9~-11--8~--9----11----11-x3--8-----9----11----11-|
--9----------------------|-------------------------9-----------------------9-|
\          X4            / X1

Order:
Part1 X2
Part2 X1

Thats all, really easy stuff.
            
Submit corrections


        Muppet Nambla lessons Hard to play? Try these video lessons and learn fast Muppet Nambla lessons
        
↑ Back to top | Tablatures and chords for acoustic guitar and electric guitar, ukulele, drums are parodies/interpretations of the original songs. You may use it for private study, scholarship, research or language learning purposes only