» » »

Leftover Crack - Heroin Or Suicide? Tabs

Artists:  A B C D E F G H I J K L M N O P Q R S T U V W X Y Z # 

Heroin Or Suicide? Tabs

(ver. 3) Click to play this song!
Leftover Crack
 Rating:
4/5 (4 votes)

 Heroin Or Suicide? lessons Tabs too difficult? Try these video lessons and learn fast
 
                Band:Leftover Crack

Intro/Chorus
E---------------------------------------------------------------------------|
B---------------------------------------------------------------------------|
G-----6---------------------------------------------------------------------|
D-----6-6-7----a lot--------------------------------------------------------|
A-----4-6-7-----------------------------------------------------------------|
E-------4-5-----------------------------------------------------------------|

Verse

This part is stupid fast so what I do is just play the root note on the low E with some 
and palm mute it a bit so get that effect.  Play around with it, I'll write out the full chords.
E---------------------------------------------------------------------------|
B---------------------------------------------------------------------------|
G--------------------------------6-----------9---8--------------------------|
D----11-6-7-14-13-------or-------6---6---7---9---8--------------------------|
A----11-6-7-14-13----------------4---6---7---7---6--------------------------|
E----9--4-5-12-11--------------------4---5----------------------------------|

Part after 2nd Chorus (Bridge)


E---------------------------------------------------------------------------|
B---------------------------------------------------------------------------|
G--------9---6-----------9---(pause)---6-1x---------------------------------|
D----7---9---6---6---7---9-------------6----6-------------------------------|
A----7---7---4---6---7---7-------------4----6-------------------------------|
E----5-----------4---5----------------------4-------------------------------|

Breakdown

It's just bass for a bit then this part is palm muted.  The second part is when it 
to bulid up before jumping into the last chorus.  At first it's just the G# and A ocatave, 
after a bit they throw the B in.

E---------------------------------------------------------------------------|
B---------------------------------------------------------------------------|
G--------9---8---6------------------13---14------13---14---16---------------|
D----7---9---8---6---6--------------x----x-------x----x----x----------------|
A----7---7---6---4---6--------------11---12------11---12---14---------------|
E----5---------------4------------------------------------------------------|

Here's the bass line for the quiet part of the breakdown if you get bored like me and 
something to plat while your waiting.  You'll have to figure out the rythm yourself but 
simple.


E---------------------------------------------------------------------------|
B---------------------------------------------------------------------------|
G---------------------------------------------------------------------------|
D---------------------------------------------------------------------------|
A--------7---6---4------------------7---6---9---11--------------------------|
E----5---------------4----------5-------------------------------------------|

Cheers.
            
Submit corrections


        Heroin Or Suicide? lessons Hard to play? Try these video lessons and learn fast Heroin Or Suicide? lessons
        
↑ Back to top | Tablatures and chords for acoustic guitar and electric guitar, ukulele, drums are parodies/interpretations of the original songs. You may use it for private study, scholarship, research or language learning purposes only