» » »

Leftover Crack - Gay Rude Boys Unite Tabs

Artists:  A B C D E F G H I J K L M N O P Q R S T U V W X Y Z # 

Gay Rude Boys Unite Tabs

(ver. 1) Click to play this song!
Leftover Crack
 Rating:
3.5/5 (8 votes)

 Gay Rude Boys Unite lessons Tabs too difficult? Try these video lessons and learn fast
 
                Gay Rude Boys Unite tab by DFFBoston with help from Evan_LesPaul

I fixed the everything!

Intro: Palm Muted
e-------------------------------------------------------|
b-------------------------------------------------------|
g-------------------------------------------------------|
d-------------------------------------------------------|
a---------2--2--4--4-----------4--4--2--2--4--4---------|
E---0--0--------------4--5---5--------------------------|
    .  .  .  .  .  .  .  .   . .  .  .  .  .  .
Verse (ska upstroke):
e-77x7-77-/-12-12-/-14-14-|
b-99x9-99-/-14-14-/-16-16-|
g-99x9-99-/-14-14-/-16-16-|
d-99x9-99-/-14-14-/-16-16-|
a-77x7-77-/-12-12-/-14-14-|
E-------------------------|
  E         Db      B

chorus (overdriven):
e---------------------------------------------------------------|
b---------------------------------------------------------------|
g-66666666---88888888--1313131313131313--16-16-16-16--14-14--13-|
d-66666666---99999999--1313131313131313---x--x--x--x---x--x---x-|
a-44444444---77777777--1111111111111111--14-14-14-14--12-12--11-|
E---------------------------------------------------------------|

e--------------------------------------------------------|
b--------------------------------------------------------|
g-66666666---88888888--1313131313131313--111111119-9-6---|
d-66666666---99999999--1313131313131313--111111119-9-6---|
a-44444444---77777777--1111111111111111--9-9-9-9-7-7-4---|
E--------------------------------------------------------|

Pre-verse:
e-----------------|-----------------|----------------------------|
b-----------------|-----------------|----------------------------|
g-66-666----------|-66-666----------|----------------------------|
d-66-666-77-777-x2|-66-666-77-777-x2|---77777777--99999999-------|
a-44-444-77-777---|-44-444-77-777---|---77777777--99999999-------|
E--------55-555---|--------55-555---|---55555555--77777777-------|
                                        ........  ........
Bridge: 
1st guitar plays unmuted intro while 2nd guitar plays...
e---------------------------------------------------------|
b---------------------------------------------------------|
g---------------------------------------2222--4444--------|
d-2--------2--------2-2--------2-2-2-2--2222--4444--------|
a-2--------2--------2-2--------2-2-2-2--0000--2222--------|
E-0--------0-----/7-0-0-----/7-0-0-0-0--------------------|


Lyrics:
Unity! HA! yer such a saint today
You may be anti racist but then you're anti gay
You may be ignorant from a lack of education
But if it's sympathy you see you seek
You better turn to another station

Intolerant society rears it's ugly face
You're turning your native music into a homophobic disgrace
The gay ones, the straight ones, the white tan yellow and black
Gay rude boys and girls, we're gonna take that dancehall back
We'll take it back!
Because without respect there's gonna be nothing left

This double standard just won't sit that well with me
I come to say this and it's just the way it has to be
You know i'm not PC i'll shoot your kid at school
'cuz he's gonna grow up to be a f**king a**hole just like you
You can celebrate your unity till every gay is dead
But why don't you stop your fronting with real unity instead
And on a better dime on this sh*tty little globe
We would crucify the racists and be bashing all the homophobes

Intolerant society rears it's ugly face
You're turning your hardcore music into a homophobic disgrace
The gay ones, the straight ones, the white tan yellow and black
Gay rude boys and girls, we're gonna take that dancehall back
We'll take it back, we'll take it back
Because without respect there's gonna be nothing left

2000 triple zero stand up and take a look around
This ignorant f**king sh*t shouldn't happen in any town
So come on leave the closet and on your way out grab a bat
Cuz there's a battle to be fought and the prize is f**king phat
Autonomy from ignorance there's got to be a better way
But the racist, sexist homophobes and piggies gotta pay
But right now you got to get out of your f**king seat
And jam down to the faggot rythm's of that crack rock steady beat!!!
            
Submit corrections


        Gay Rude Boys Unite lessons Hard to play? Try these video lessons and learn fast Gay Rude Boys Unite lessons
        
↑ Back to top | Tablatures and chords for acoustic guitar and electric guitar, ukulele, drums are parodies/interpretations of the original songs. You may use it for private study, scholarship, research or language learning purposes only