» » »

Leftover Crack - Burn Them Prisons Tabs

Artists:  A B C D E F G H I J K L M N O P Q R S T U V W X Y Z # 

Burn Them Prisons Tabs

(ver. 1) Click to play this song!
Leftover Crack
 Rating:
4/5 (4 votes)

 Burn Them Prisons lessons Tabs too difficult? Try these video lessons and learn fast
 
                ----------------------------------------------------------------------------
---------------------------------------------------------------------------

Intro
Guitar 1
e|---33333--55555-----------------------------------------------------------|
B|---33333--33333-----------------------------------------------------------|
G|--------------------------------------------------------------------------|
D|--------------------------------------------------------------------------|
A|--------------------------------------------------------------------------|
E|--------------------------------------------------------------------------|
Guitar 2
e|--------------------------------------------------------------------------|
B|--------------------------------------------------------------------------|
G|--/7/5/12-----------------------------------------------------------------|
D|--/7/5/12-----------------------------------------------------------------|
A|--/9/3/10-----------------------------------------------------------------|
E|--------------------------------------------------------------------------|

Verse (guitar 1 plays intro)
Guitar 2 *=20 strums
e|--------------------------------------------------------------------------|
B|---*---*------------------------------------------------------------------|
G|--12---9------------------------------------------------------------------|
D|---x---x------------------------------------------------------------------|
A|--10---7------------------------------------------------------------------|
E|--------------------------------------------------------------------------|

Chorus
Guitar 1&2        on 3rd bar:
e|------------------|-------------------------------------------------------|
B|---*--------------|---#---------------------------------------------------|
G|---9-11-11-12-12--|--14--12-12-12--11-11----------------------------------|
D|---x--x--x--x--x--|---x---x--x--x---x--x----------------------------------|
A|---7--9--9-10-10--|--12--10-10-10---9--9----------------------------------|
E|------------------|-------------------------------------------------------|
*=12 strums
#=8 strums
            
Submit corrections


        Burn Them Prisons lessons Hard to play? Try these video lessons and learn fast Burn Them Prisons lessons
        
↑ Back to top | Tablatures and chords for acoustic guitar and electric guitar, ukulele, drums are parodies/interpretations of the original songs. You may use it for private study, scholarship, research or language learning purposes only