» » »

Leftover Crack - Bedbugs And Beyond Tabs

Artists:  A B C D E F G H I J K L M N O P Q R S T U V W X Y Z # 

Bedbugs And Beyond Tabs

(ver. 1) Click to play this song!
Leftover Crack
 Rating:
4.3/5 (23 votes)

 Bedbugs And Beyond lessons Tabs too difficult? Try these video lessons and learn fast
 
                e|---66966696669676-6-----(play this whole riff x2)--------------------------|
B|-----------------9---------------------------------------------------------|
G|---------------------------------------------------------------------------|
D|---------------------------------------------------------------------------|
A|---------------------------------------------------------------------------|
E|---------------------------------------------------------------------------|

(You'll have to listen to the actual song to figure out how many times these
power chords are strummed because I can't figure it out exactly)

e|---------------------------------------------------------------------------|
B|---------------------------------------------------------------------------|
G|---------------------------------------------------------------------------|
D|-4-----3--4----------------------------------------------------------------|
A|-4-----3--4-------------(play this x4)-------------------------------------|
E|-2-----1--2----------------------------------------------------------------|

e|---------------------------------------------------------------------------|
B|---------------------------------------------------------------------------|
G|---------------------------------------------------------------------------|
D|------------------9-8/9---------------------------------------98-----------|
A|---------(PM)6666---------------9-8/9-----------9-8/9----------------------|
E|----------------------(PM)6666--------(PM)7777--------(PM)7777-------------|


e|----------------------------------------------------------------------------|
B|----------------------------------------------------------------------------|
G|--------------------------------------------------------------------(10)(11)|
D|----------9-8/9--------------------------------------------9(11)(13)--------|
A|-(PM)6666------------------9-8/9-----------(11)9--9(11)(13)-----------------|
E|-----------------(PM)6666---------(PM)7777----------------------------------|
(listen to the song for number of strums)
e|---------------------------------------------------------------------------|
B|---------------------------------------------------------------------------|
G|---11--8--3--4--8-3-4-8-3-4-8-3-4------3-4------3-4-----3-4------3-4-------|
D|---11--8--3--4--8-3-4-8-3-4-8-3-4---4--3-4---4--3-4--4--3-4---4--3-4-------|
A|---9---6--1--2--6-1-2-6-1-2-6-1-2---4--1-2---4--1-2--4--1-2---4--1-2-------|
E|------------------------------------2--------2-------2--------2------------|

e|---------------------------------------------------------------------------|
B|---------------------------------------------------------------------------|
G|---------------------------------------------------------------------------|
D|------------------9-8/9---------------------------------------98-----------|
A|---------(PM)6666---------------9-8/9-----------9-8/9----------------------|
E|----------------------(PM)6666--------(PM)7777--------(PM)7777-------------|

e|---------------------------------------------------------------------------|
B|---------------------------------------------------------------------------|
G|---------------------------------------------------------------------------|
D|------------9-8/9-------------------------------------98-------------------|
A|---(PM)6666---------------9-8/9-------------(11)9-------989----------------|
E|-----------------(PM)6666----------(PM)7777--------------------------------|

(The 4th chord in the chord pattern below may not be correct, but it sounds close
enough. If you do know the exact chord, please comment it below)
e|---------------------------------------------------------------------------|
B|---------------------------------------------------------------------------|
G|--8--3--4--4---------------------------------------------------------------|
D|--8--3--4--3---------------------------------------------------------------|
A|--6--1--2--2---(x4)--------------------------------------------------------|
E|---------------------------------------------------------------------------|

e|---66966696669676-6-----(play this whole riff x4)--------------------------|
B|-----------------9---------------------------------------------------------|
G|---------------------------------------------------------------------------|
D|---------------------------------------------------------------------------|
A|---------------------------------------------------------------------------|
E|---------------------------------------------------------------------------|

e|---6-----(11)9-7-6----------(Play this x5)---------------------------------|
B|---7-----------------------------------------------------------------------|
G|---------------------------------------------------------------------------|
D|---------------------------------------------------------------------------|
A|---------------------------------------------------------------------------|
E|---------------------------------------------------------------------------|
            
Submit corrections


        Bedbugs And Beyond lessons Hard to play? Try these video lessons and learn fast Bedbugs And Beyond lessons
        
↑ Back to top | Tablatures and chords for acoustic guitar and electric guitar, ukulele, drums are parodies/interpretations of the original songs. You may use it for private study, scholarship, research or language learning purposes only