Home » L » Lee Scratch Perry »

Lee Scratch Perry - Popcorn Bass

Artists:  A B C D E F G H I J K L M N O P Q R S T U V W X Y Z # 

Popcorn Bass

(ver. 1) Click to play this song!
Lee Scratch Perry
LEE SCRATCH PERRT AND THE UPSETTERS
POPCORN (EASTWOOD RIDE AGAIN - 1970)

Bassist: Aston "Family Man" Barrett


E ---------------------------------------------------------|
A ----------7-7-------------(7)7---------------------7-7---|
D -----------------------9------------------9--------------| repeat
G ---------------9-9--7----9-------9-9-9--7---7-7--9-------|

                ---------------OR-------------------


E --------------------------------------------------------|
A ---------7-7-------------(7)7---------------------7-7---|
D ---------------------9-----------------7--9-9-----------| repeat
G -------------9-9--7----9-------9-9-9-7---------9--------|


Bridge
E ------------------------------------------------------------|
A ---------5-5-5-5-5-5-5-5------7-7-7-7-7-7-7-7---------------|
D ------------------------------------------------------------|
G ------------------------------------------------------------|

great bassline
great dub

JAH WOBBLE IS GOD!!
            
Submit corrections

↑ Back to top | Tablatures and chords for acoustic guitar and electric guitar, ukulele, drums are parodies/interpretations of the original songs. You may use it for private study, scholarship, research or language learning purposes only