Home » L » Lee Scratch Perry »

Lee Scratch Perry - Moving Forward Bass

Artists:  A B C D E F G H I J K L M N O P Q R S T U V W X Y Z # 

Moving Forward Bass

(ver. 1) Click to play this song!
Lee Scratch Perry
LEE SCRATCH PERRY
MOVING FORWARD from BLACKBOARD JUNGLE DUB
BASSSIT: FAMILY MAN


E --------------------------------------------|
A --------------5----------------------5------|
D ----0-5-5-5-4----3----0-5-5-5-5-5-4-----3---|
G --------------------------------------------|

E --------------------------------------------|
A ----------------------------------5---------|
D ----0--5-----0--3---0-5-5-5-5--3------------|
G --------------------------------------------|

there are some variations but the tune is this

bye
jah wobble is god
            
Submit corrections

↑ Back to top | Tablatures and chords for acoustic guitar and electric guitar, ukulele, drums are parodies/interpretations of the original songs. You may use it for private study, scholarship, research or language learning purposes only