Home » L » Lee Scratch Perry »

Lee Scratch Perry - Lovers Skank Bass

Artists:  A B C D E F G H I J K L M N O P Q R S T U V W X Y Z # 

Lovers Skank Bass

(ver. 1) Click to play this song!
Lee Scratch Perry
LEE SCRATCH PERRY & THE UPSETTERS - LOVERS SKANK
BASSIST: ASTON "FAMILY MAN" BARRETT

VERSE

E -------------------------------------------------------------|
A ------------------------------------1-1-1-1--------1-1-1-1---|
D -------3-3-3-3------3-3-3-3----/3-3----------/3-3------------|
G --/5-5---------/5-5------------------------------------------|

VARIATIONS

E ---------------------------------------------------------------|
A ----------------------------------0-4-3-0-4-3--------1-1-1-1---|
D -------3-3-3-3------3-3-3-3----/3---------------/3-3-----------|
G --/5-5---------/5-5--------------------------------------------|

CHORUS

E ---------------------------------------------------------------------|
A -----------------------------------------------1-1-1-1------1-1-1-1--|
D ------3-----3-----3-3-0h3-3-----3----3-3-0h3-----------/3-3----------|
G -/5-5---5-5---5-5-----------5-5---5-5--------------------------------|

back to the verse

JAH WOBBLE IS GOD!!!!
            
Submit corrections

↑ Back to top | Tablatures and chords for acoustic guitar and electric guitar, ukulele, drums are parodies/interpretations of the original songs. You may use it for private study, scholarship, research or language learning purposes only