Home » L » Lee Scratch Perry »

Lee Scratch Perry - Dreadlocks In Moonlight Bass

Artists:  A B C D E F G H I J K L M N O P Q R S T U V W X Y Z # 

Dreadlocks In Moonlight Bass

(ver. 1) Click to play this song!
Lee Scratch Perry
 Title - Dreadlocks in Moonlight
 Artist - Lee'Scratch'Perry


   verse x2 incl.intro
G|----------------------------------|
D|----5555-----55-------------------|
A|--5------5h7----775---------------|
E|---------------------5555-5-0555--|


G|---------------------------------|
D|----5555-----55------------------|
A|--5------5h7----775--------------|
E|--------------------5555-5-0555--|


   chorus
G|----------------------------------|
D|----53--------------53------------|
A|--3---3--55-0-5--03---3--055-0-5--|
E|----------------------------------|


G|---------------------------------------|
D|----53-----------------53--------------|
A|--3---3--055-0-5-5--03---3--055-0-5-5--|
E|---------------------------------------|

   repeat verse,chorus thro'out
            
Submit corrections

↑ Back to top | Tablatures and chords for acoustic guitar and electric guitar, ukulele, drums are parodies/interpretations of the original songs. You may use it for private study, scholarship, research or language learning purposes only