Home » L » Lee Scratch Perry »

Lee Scratch Perry - Cloak And Dagger Bass

Artists:  A B C D E F G H I J K L M N O P Q R S T U V W X Y Z # 

Cloak And Dagger Bass

(ver. 1) Click to play this song!
Lee Scratch Perry
LEE SCRATCH PERRY & THE UPSETTERS - CLOAK AND DAGGER
BASSIST: ASTON "FAMILY MAN" BARRETT

INTRO

E -----------------------------------------------------------------|
A -5----------5---5---------5---5---------5---5---------------5----|
D ---5-5-5-5----3---5-5-5-5---3---5-5-5-5---3---5-5-5-5-5-5-5---3--|
G -----------------------------------------------------------------|

VERSE

E --------------------------------------------------------------------|
A --5-----5----5------------5---5-------------5----5----------------5-|
D ----5-----3----5-5-5-5--3-------5-5-5-5-5-5---3----5-5-5-5-5-5--3---|
G --------------------------------------------------------------------|

E ----------------------------------------------------|
A --5---5---5------------5---5---5---5----------------|
D ----5---3---5-5-5-5--3-------5---3----5-5-5-5--3----|
G ----------------------------------------------------|

E -------------------------------------------------------|
A -5----------5---5---------5---5---5---5-----------5----|
D ---5-5-5-5----3---5-5-5-5---3---5---3---5-5-5-5-3------|
G -------------------------------------------------------|

JAH WOBBLE IS GOD!!!
            
Submit corrections

↑ Back to top | Tablatures and chords for acoustic guitar and electric guitar, ukulele, drums are parodies/interpretations of the original songs. You may use it for private study, scholarship, research or language learning purposes only