Home » L » Leeland »

Leeland - The Lion And The Lamb Tabs

Artists:  A B C D E F G H I J K L M N O P Q R S T U V W X Y Z # 

The Lion And The Lamb Tabs

(ver. 1) Click to play this song!
Leeland
 Rating:
4.4/5 (7 votes)
                Key: A


 
[Intro]
slight overdrive, dotted 1/8th delay
e|---------------------------------------------------------------------------|
B|--10--12--14------10--12--15--14------------12-14-12---12----12-14-12------|
G|------------------------------------------14--------------14---------------|
D|----------------------------------------14---------------------------------|
A|---------------------------------------------------------------------------|
E|---------------------------------------------------------------------------|
 
e|---------------------------------------------------------------------------|
B|--10--12--14------10--12--15--14------------12-14-12---12----12-14-12------|
G|------------------------------------------14--------------14---------------|
D|----------------------------------------14---------------------------------|
A|---------------------------------------------------------------------------|
E|---------------------------------------------------------------------------|

[Verse 1]

[Chorus 1]

[Verse 2]

e|---------------------------------------------------------------------------|
B|---------------------------------------------------------------------------|
G|---------------------------------------------------------------------------|
D|-7-7-7-7-7-7-7-7-9p7-7 -9p7-7-7--------------------------------------------|
A|---------------------------------------------------------------------------|
E|---------------------------------------------------------------------------|(x4)

e|---------------------------------------------------------------------------|
B|---------------------------------------------------------------------------|
G|-------9-6--------9-6-------9-6-------9-6----------------------------------|
D|-7-7-7------7-7-7-----7-7-7-----7-7-7--------------------------------------|
A|---------------------------------------------------------------------------|
E|---------------------------------------------------------------------------|

[Chorus 2]

Play barre chords with distortion

[Bridge]
overdrive, dotted 1/8th

e|---------------------------------------------------------------------------|
B|---------------------------------------------------------------------------|
G|-7-6-4-6-4-2---------------------------------------------------------------|
D|---------------------------------------------------------------------------|
A|---------------------------------------------------------------------------|
E|---------------------------------------------------------------------------|
            
Submit corrections

↑ Back to top | Tablatures and chords for acoustic guitar and electric guitar, ukulele, drums are parodies/interpretations of the original songs. You may use it for private study, scholarship, research or language learning purposes only