Home » L » Leeland »

Leeland - Sound Of Melodies Bass

Artists:  A B C D E F G H I J K L M N O P Q R S T U V W X Y Z # 

Sound Of Melodies Bass

(ver. 1) Click to play this song!
Leeland
-------------------------------------------------------------------------------
-------------------------------------------------------------------------------


Tuning: standard

Intro: it starts out just random piano stuff with a B string, note D
G|---------------------------------------------------------------------------|
D|---------------------------------------------------------------------------|
A|5-5-5-5-5-5-5-5-5-7-9-7----------------------------------------------------|
E|------------------------5-5-5-5-5-5-5-5-5-5-5-5----------------------------|

G|---------------------------------------------------------------------------|
D|---------------------------------------------------------------------------|
A|------------------------------------------------5x-------------------------|
E|2-2-2-2-2-2-2-2-2-2-2-2-5-5-5-5-5-5-7-7-7-3-3-3----------------------------|


Verse I: nothing for first three lines (of singing)
G|---------------------------------------------------------------------------|
D|---------------------------------------------------------------------------|
A|5-5-5-5-5-5-5-5-5-7-9-7----------------------------------------------------|
E|------------------------7-7-7-7-7-7-3-3-3-3-3-3----------------------------|

G|---------------------------------------------------------------------------|
D|---------------------------------------------------------------------------|
A|5-5-5-5-5-5-5-5-5-7-9-7----------------------------------------------------|
E|------------------------7-7-7-7-7-7-3-3-3-3-3-3----------------------------|


Chorus:X2
G|---------------------------------------------------------------------------|
D|---------------------------------------------------------------------------|
A|5-5-5-5-5-5-5-5-5-7-9-7----------------------------------------------------|
E|------------------------5-5-5-5-5-5-5-5-5-5-5-5----------------------------|

G|---------------------------------------------------------------------------|
D|---------------------------------------------------------------------------|
A|------------------------------------------------5x-------------------------|
E|2-2-2-2-2-2-2-2-2-2-2-2-5-5-5-5-5-5-7-7-7-3-3-3----------------------------|


Verse II: after guitar riff
G|---------------------------------------------------------------------------|
D|---------------------------------------------------------------------------|
A|--------------------------------------5-5-5-5-5-5-5-5-5-5-5-5--------------|
E|7-7-7-7--3-3-3-3----7-7-7-7--3-3-3-3---------------------------------------|

G|---------------------------------------------------------------------------|
D|---------------------------------------------------------------------------|
A|------------------------5-5-5-5-5-5-5-5-5-5-5-5----------------------------|
E|7-7-7-7-7-7-3-3-3-3-3-3----------------------------------------------------|

G|---------------------------------------------------------------------------|
D|---------------------------------------------------------------------------|
A|------------------------5-5-5-5-5-5-5-5-5/9-9-9----------------------------|
E|7-7-7-7-7-7-3-3-3-3-3-3----------------------------------------------------|

G|---------------------------------------------------------------------------|
D|---------------------------------------------------------------------------|
A|------------------------5-5-5-5-5-5-5-5-5-5/9-9----------------------------|
E|7-7-7-7-7-7-3-3-3-3-3-3-------------------------7-7-7-7-7-7-3-3-3-3-3-3----|


Chorus:X2
G|---------------------------------------------------------------------------|
D|---------------------------------------------------------------------------|
A|5-5-5-5-5-5-5-5-5-7-9-7----------------------------------------------------|
E|------------------------5-5-5-5-5-5-5-5-5-5-5-5----------------------------|

G|---------------------------------------------------------------------------|
D|---------------------------------------------------------------------------|
A|------------------------------------------------------5x-------------------|
E|2-2-2-2-2-2/14-14-14-14-14-14-5-5-5-5-5-5-7-7-7-3-3-3----------------------|


Bridge:X4
G|---------------------------------------------------------------------------|
D|---------------------------------------------------------------------------|
A|5-5-5-5-5-5-5-5-5-5-5-5-5/12-12-12-12-12-12--------------------------------|
E|--------------------------------------------7-7-7-3-3-3--------------------|


Silent Chorus:nothing
G|---------------------------------------------------------------------------|
D|---------------------------------------------------------------------------|
A|---------------------------------------------------------------------------|
E|---------------------------------------------------------------------------|


Build up:
G|---------------------------------------------------------------------------|
D|---------------------------------------------------------------------------|
A|5-5-5-5-5-5-5-5-5-5-5-5----------------------------------------------------|
E|------------------------5-5-5-5-5-5-5-5-5-5-5-5----------------------------|

G|---------------------------------------------------------------------------|
D|---------------------------------------------------------------------------|
A|---------------------------------------------------------------------------|
E|2-2-2-2-2-2-2-2-2-2-2-2-5-5-5-5-5-5-7-7-7-3-3-3----------------------------|


La La La La La La La:X2
G|---------------------------------------------------------------------------|
D|---------------------------------------------------------------------------|
A|5-5-5-5-5-5/17-17-17-17-17-17----------------------------------------------|
E|------------------------------5-5-5-5-5-5/17-17-17-17-17-17----------------|

G|---------------------------------------------------------------------------|
D|---------------------------------------------------------------------------|
A|------------------------------------------------5--------------------------|
E|2-2-2-2-2-2-2-2-2-2-2-2-5-5-5-5-5-5-7-7-7-3-3-3----------------------------|

| /  slide up
| \  slide down
| h  hammer-on
| p  pull-off
| ~  vibrato
| +  harmonic
| x  Mute note
===============================================================================
            
Submit corrections

↑ Back to top | Tablatures and chords for acoustic guitar and electric guitar, ukulele, drums are parodies/interpretations of the original songs. You may use it for private study, scholarship, research or language learning purposes only