Home » L » Lee Hazlewood »

Lee Hazlewood - Hands Tabs

Artists:  A B C D E F G H I J K L M N O P Q R S T U V W X Y Z # 

Hands Tabs

(ver. 1) Click to play this song!
Lee Hazlewood
LEE HAZLEWOOD "HANDS"


The text isn't fitted to the tab - just written above.

Intro:
 EbM	     Bb		 EbM	       Bb
|-------------------------------------------------|
|------7-----------6-----------7-----------6------|
|----8---8-----------7-------8---8-----------7----|
|--8-------8-----8-----8---8-------8-----8-----8--|
|6-------------8---------6-------------8----------|
|------------6-----------------------6------------|


1st Verse:

Loneliness is all I understand 

 Ebm	     B		Ebm
|-------------------------------------------------|
|------7-----------7-----------7-----------7------|
|----8---8-----------8-------8---8-------8---8----|
|--8-------8-----9-----9---8-------8---8-------8--|
|6-------------9---------6-----------6------------|
|------------7------------------------------------|


Happiness is in another land
 Abm			  Ebm
|--------------------------------------------------|
|------4------------4-----------7-----------7------|
|--------4------------4-------8---8-------8---8----|
|----6-----6------6-----6---8-------8---8-------8--|
|--6------------6---------6-----------6------------|
|4------------4------------------------------------|


Tenderness is what I felt today
 F#			 C#
|--------------------------------------------------|
|------2------------2-----------6-----------6------|
|--------3------------3-------6---6-------6---6----|
|----4-----4------4-----4---6-------6---6-------6--|
|--4------------4---------4-----------4------------|
|2------------2------------------------------------|


When you touched my lonely hands
 Ebm			 Eb
|-------------------------------------------------|
|------7-----------7-----------8-----------8------|
|----8---8-------8---8-------8---8-------8---8----|
|--8-------8---8-------8---8-------8---8-------8--|
|6-----------6-----------6-----------6------------|
|-------------------------------------------------|

And today was a day like I've never known before
 C#			 Eb
|-------------------------------------------------|
|------6-----------6-----------8-----------8------|
|----6---6-------6---6-------8---8-------8---8----|
|--6-------6---6-------6---8-------8---8-------8--|
|4-----------4-----------6-----------6------------|
|-------------------------------------------------|


And your touch made me feel alone no more.
 C#			 Ab
|-------------------------------------------------|
|------6-----------6-----------4------------4-----|
|----6---6-------6---6-----------5------------5---|
|--6-------6---6-------6-----6-----6------6-----6-|
|4-----------4-------------6------------6---------|
|------------------------4------------4-----------|

When you touched my hands, you touched my hands
 EbM	     Bb		 EbM	       Bb
|-------------------------------------------------|
|------7-----------6-----------7-----------6------|
|----8---8-----------7-------8---8-----------7----|
|--8-------8-----8-----8---8-------8-----8-----8--|
|6-------------8---------6-------------8----------|
|------------6-----------------------6------------|

My lonely hands
 EbM	     Bbm
|-------------------------|
|------7-----------6------|
|----8---8-----------6----|
|--8-------8-----8-----8--|
|6-------------8----------|
|------------6------------|

Piano, bass and drums comes in. Guitar keeps picking the Ebm chord above 4 times. 
Piano, bass and guitar plays these chords:

Ebm	Ebm	Ebm(bass plays a F#. This is also when the guitar switches to chords)
Abm	Ebm	F#	C#	Ebm


Second verse (bass and piano ends on the Ebm):
 Ebm			 C#
|-------------------------|
|------8-----------8------|
|----8---8-------8---8----|
|--8-------8---8-------8--|
|6-----------6------------|
|-------------------------|


And today was a day like I've never known before
 Ebm			 C#
|-------------------------------------------------|
|------6-----------6-----------8-----------8------|
|----6---6-------6---6-------8---8-------8---8----|
|--6-------6---6-------6---8-------8---8-------8--|
|4-----------4-----------6-----------6------------|
|-------------------------------------------------|


And your touch made me feel alone no more.
 C#			 Ab
|-------------------------------------------------|
|------6-----------6-----------4------------4-----|
|----6---6-------6---6-----------5------------5---|
|--6-------6---6-------6-----6-----6------6-----6-|
|4-----------4-------------6------------6---------|
|------------------------4------------4-----------|


When you touched my hands, you touched my hands
 EbM	     Bb		 EbM	       Bb
|-------------------------------------------------|
|------7-----------6-----------7-----------6------|
|----8---8-----------7-------8---8-----------7----|
|--8-------8-----8-----8---8-------8-----8-----8--|
|6-------------8---------6-------------8----------|
|------------6-----------------------6------------|


My lonely
 EbM	     Bbm
|---------------| This is supposed to be an arpeggio
|---7-------6---|
|--8-------6----|
|-8-------8-----|
|6-------8------|
|-------6-------|


 Ebm	      Ebsus2
|-------------------| This is supposed to be an arpeggio as well.
|------7-6-7-----6--|
|----8----------8---|
|--8-----------8----|
|6------------6-----|
|-------------------|

Fin!
            
Submit corrections

↑ Back to top | Tablatures and chords for acoustic guitar and electric guitar, ukulele, drums are parodies/interpretations of the original songs. You may use it for private study, scholarship, research or language learning purposes only