» » »

Lds Hymns - Our Saviors Love Tabs

Artists:  A B C D E F G H I J K L M N O P Q R S T U V W X Y Z # 

Our Saviors Love Tabs

(ver. 1) Click to play this song!
Lds Hymns
 Rating:
4.1/5 (22 votes)

 Our Saviors Love  lessons Tabs too difficult? Try these video lessons and learn fast
 
                Our...   Love...               As...                Strife...
e|-2--5-2--7--7-0-2-3-5-3-2-2---5--9----10--10--9----7---5------------------------|
B|-3-------0----0-------0---0---3---10--10-------10---5--------3-5----------------|
G|-2-------6------2-0---------------------11-----------------2--------------------|
D|-0-------7----------4-2---0-----------0------------------4----------------------|
A|---------0--------------------0--0------------0--------0------------------------|
E|---------------------------------------------------7----------------------------|

  Lighting...       Way...  Leads...           Where...   Stay...    Share...
e|-9---9---12---9----5----5--3--7--5--3--2----2-----------------------------------|
B|--10--10---10--10---2------0---0--0--0--0------0-----3-0------------0-----------|
G|---------------------4-------------------2------0----0--------------4-----------|
D|----------------------4--------------------------4---4---0----------0--2-2-2-0--|
A|-0-----------------0---------------------------2--2--0------------0-2--4-4-4-0--|
E|---------------------------3--7--5--3--2--2--------------3--0-2-3---0-----------|            
Submit corrections


        Our Saviors Love  lessons Hard to play? Try these video lessons and learn fast Our Saviors Love  lessons
        
↑ Back to top | Tablatures and chords for acoustic guitar and electric guitar, ukulele, drums are parodies/interpretations of the original songs. You may use it for private study, scholarship, research or language learning purposes only