» » »

Lds Hymns - More Holiness Give Me Tabs

Artists:  A B C D E F G H I J K L M N O P Q R S T U V W X Y Z # 

More Holiness Give Me Tabs

(ver. 1) Click to play this song!
Lds Hymns
 Rating:
2.1/5 (29 votes)

 More Holiness Give Me  lessons Tabs too difficult? Try these video lessons and learn fast
 
                Tuning:standard

e|---------------------------------------------------------------------------|
B|---------------------------------------------------------------------------|
G|--------4-2-1---2--------------------------4-2-1---2--2--1---1-2-----------|
D|-4----4-------------0----0-0-4--2---4----4-----------------4---------------|
A|--------------------------4------------------------0-----2-----0-----------|
E|------------------------------------2----------0------2--------------------|

e|---------------------------------------------------------------------------|
B|-----------------0-0-0-0------------------0--------------------------------|
G|-0-0-0-0-0-0-----4-------2----7--7-7-7-7--4-----2---2-0--------------------|
D|-------------4-----------2-----------4-5--5-----2-------2-0----------------|
A|-----------------2-------0----5--5-7------5-----0---0-----5----------------|
E|-3-----------2----------------------------------------3-0------------------|

e|-2--2--/7-5-4---5-----------2----0----2--2--/7-5-4---5--5---4p2-4-5--------|
B|-3-----------0--2---3-3p2h3--0---2----3-----------0--2--2----------2-------|
G|--------------2---------------2--------------------2----------------2------|
D|-0----------4-------0-----------------0----------4------4------------2-----|
A|----------------0----------------0-------------------0-------------0-------|
E|----------------------------2-------------------------------0--------------|

e|-3--3-3-3-3-3-2-------------10--10-10-10-10---7--5--5-3-0------------------|
B|-0--0-0-0-0-0-0--0--0--------------------0----0--3--------3----------------|
G|---------------------0--2----------------0----0-----------0----------------|
D|----------------------4------------------9----0----------------------------|
A|-----------------2--2---0-----------7-9--10---x-----------5----------------|
E|-3--3-3-3-3-3-2-------------10--10-------0----7--5--5-3-0------------------|            
Submit corrections


        More Holiness Give Me  lessons Hard to play? Try these video lessons and learn fast More Holiness Give Me  lessons
        
↑ Back to top | Tablatures and chords for acoustic guitar and electric guitar, ukulele, drums are parodies/interpretations of the original songs. You may use it for private study, scholarship, research or language learning purposes only