Home » L » Lcd Soundsystem »

Lcd Soundsystem - All My Friends Bass

Artists:  A B C D E F G H I J K L M N O P Q R S T U V W X Y Z # 

All My Friends Bass

(ver. 2) Click to play this song!
Lcd Soundsystem
Pretty simple bass. Just play these beats the entire song.

G|----------------------------------------------------------------|
D|----7-------7-------7-------7-------7-------7-------7-------7---|
A|----------------------------------------------------------------|
E|5-5---5-5-5---5-5-5---5-5-5---5-5-5---5-5-5---5-5-5---5-5-5---5-|

G|----------------------------------------------------------------|
D|----7-------7-------7-------7-------7-------7-------7-------7---|
A|5-5---5-5-5---5-5-5---5-5-5---5-5-5---5-5-5---5-5-5---5-5-5---5-|
E|----------------------------------------------------------------|

Enjoy!
            
Submit corrections

↑ Back to top | Tablatures and chords for acoustic guitar and electric guitar, ukulele, drums are parodies/interpretations of the original songs. You may use it for private study, scholarship, research or language learning purposes only