» » »

Lazy - Wish You Were Here Chords

Artists:  A B C D E F G H I J K L M N O P Q R S T U V W X Y Z # 

Wish You Were Here Chords

(ver. 1) Click to play this song!
Lazy
 Rating:
4.3/5 (18 votes)


 Wish You Were Here  lessons Tabs too difficult? Try these video lessons and learn fast
 
                [Intro]
e|-----------------------------------------------------|
B|--------------1--------------------------------------|
G|--------0-0/2---0/2-0-------0-0/2--2-0---------------|
D|----0p2-----------------0p2------------0/2-0-0p2-0---|
A|--3-------------------3----------------------------3-|
E|-----------------------------------------------------|

C

[Verse]
F                          G
 So, so you think you can tell
             Dm7
Heaven from Hell
             C
Blue skies from pain
                      G
Can you tell a green field
              F
From a cold steel rail?
                Dm   F
A smile from a veil?
                      C
Do you think you can tell?
                      F
Did they get you to trade
                  G
Your heroes for ghosts?
                Dm
Hot ashes for trees?
               C
Hot air for a cool breeze?
                   G
Cold comfort for change?
                F
And did you exchange
                     Dm
A walk on part in a war
                      C
For a lead role in a cage?

[Bridge]
e|-------------------------|
B|--------------1----------|
G|--------0-0/2---0/2-0----|
D|----0p2------------------|
A|--3----------------------|
E|-------------------------|

                        Wish you were here
e|-------------------------|
B|----------------1----1---|
G|--------0-0/2-2--0/2---0-|
D|----0p2------------------|
A|--3----------------------|
E|-------------------------|
                         Wish you were here
e|------------------------------------------------------------|
B|------------------------------------------------------------|
G|-------0-0/2--2-0---------------0-0/2--2-0----0-------------|
D|---0p2-----------0/2-0--0---0p2-----------0p2---0-0-0-0p2---|
A|--3-------------------3---3-------------------------------3-|
E|------------------------------------------------------------|
                            Wish you were here  Wish you were here

C

[Verse]
F                                 G
 How I wish, how I wish you were here
             Dm
We're just two lost souls
         Dm
Swimming in a fish bowl
C
 Year after year
G
 Running over the same old ground
F
 What have we found?
     Dm
The same old fears
                 C
Wish you were here

[Outro]
e|-------------------------|
B|--------------1----------|
G|--------0-0/2---0/2-0----|
D|----0p2------------------|
A|--3----------------------|
E|-------------------------|

                        Wish you were here
e|-------------------------|
B|----------------1----1---|
G|--------0-0/2-2--0/2---0-|
D|----0p2------------------|
A|--3----------------------|
E|-------------------------|
                         Wish you were here
e|-------------------------------------------------------------------|
B|-------------------------------------------------------------------|
G|-------0-0/2--2-0p2-0---------------0-0/2--0p2-0----0--------------|
D|---0p2----------------0/2-0--0---0p2-------------0p2---0-0-0p2-0---|
A|--3------------------------3---3---------------------------------3-|
E|-------------------------------------------------------------------|
                            Wish you were here    Wish you were here            
Submit corrections



        Wish You Were Here  lessons Hard to play? Try these video lessons and learn fast Wish You Were Here  lessons
        
↑ Back to top | Tablatures and chords for acoustic guitar and electric guitar, ukulele, drums are parodies/interpretations of the original songs. You may use it for private study, scholarship, research or language learning purposes only